Misc Unsigned Bands - Daughter - In The Shallows tab

This is my first tab, be gentle. But I am 100% sure that this is 100% correct. You can 
watch the video of it to concur.

Capo 4
Tuning:DGDGBe

There are really only three parts to this song and if you can listen to the song you 
will hear the parts. We shall call these Part 1,2,and 3.
Everything is relative to capo.

Part 1
e|--------------------------------------------------------|
B|---8--7--12-12-3-3-3-3-3---8--7--12-12-5-5-5-5-5--------|
G|-----------0--0-0-0-0-0-0----------0--0-0-0-0-0-0-------|
D|---7--7--12-12-2-2-0-0-0---7--7--12-12-4-0--------------|
G|-------------------------------------------5-5-5--------|
D|--------------------------------------------------------|

|---------------------------------|
|---8--7--12-12-3-3-3-3-3-3p0-0---|
|-----------0--0-0-0-0-0-0--------|
|---7--7--12-12-2-2-0-0-0-0-------|
|---------------------------------|
|---------------------------------|

Part 2
|-------------------------------------|
|-----5----------8h0-0------7h0-0-----|
|-----0----------0----------0---------|
|-------------------------------------|
|-5-5--------9-9---------7-7----------|
|-------------------------------------|

Part 3
|--------------------------------------------------------------------|
|--------------------------------------------------------------------|
|------------0---0-----------0---0-----------0---0-----------0---0---|
|------------0---0-----------0---0-----------0---0-----------0---0---|
|--------------------------------------------------------------------|
|--2---2---2---2---0---0---0---0---5---5---5---5---5---5---5---5-----|




Listen to the song to get the mixing of the three parts and all of the small variations 
that she does.

Tabbed by: Lucas Behrens
Tap to rate this tab
 
# A B C D E F G H I J K L M N O P Q R S T U V W X Y Z