Song name
# A B C D E F G H I J K L M N O P Q R S T U V W X Y Z

Misc Unsigned Bands - Olympose - Something Said tab

INTRO

E------------------------------------|
B------------------------------------|
G---------12------------------10-----|
D-----14-----12-----------10-----11--|
A--12------------12----10------------|
D------------------------------------| X2

CHORUS

E-----------------------------------------------------|
B-----------------------------------------------------|
G-----------------------------------------------------|
D--5--3--0--5--5--3--0--5--5--3--0--3--5--3--0--5--3--|
A--5--3--0--5--5--3--0--5--5--3--0--3--5--3--0--5--3--|
D--5--3--0--5--5--3--0--5--5--3--0--3--5--3--0--5--3--|X5

VERSES (ALL FILLS)

E-------------------------------------------------------|
B-------------------------------------------------------|
G-------------------------------------------------------|
D---0--8--5--0--8--5--0--5--6--5------------------------|
A---0--8--5--0--8--5--0--5--6--5------------------------|
D---0--8--5--0--8--5--0--5--6--5------------------------|X5

SOLO

E-------------------------------------------------------|
B-------------------------------------------------------|
G-------------------------------------------------------|
D------15--13------15---13--12------15--13--12--13------|
A--13----------13----------------13-----------------13--|
D-------------------------------------------------------|

E---------------------------------------------------------------------|
B---------------------------------------------------------------------|
G---------------------------------------------------------------------|
D------15--13-----15--13--12------15--13--12--13----------------------|
A--13----------13-------------13-------------------13--17--18--17--15-|
D---------------------------------------------------------------------|

E---------------------|
B---------------------|
G---------------------|
D---------------------|
A-13--13--11--10------|
D---------------------|

ORDER

INTRO
CHORUS
VERSE
SOLO
VERSE
CHORUS
VERSE
CHORUS

This is our first song that we took the time to tab hope you enjoy it.
                                                  -DAVID
Tap to rate this tab
 
# A B C D E F G H I J K L M N O P Q R S T U V W X Y Z