Song name
# A B C D E F G H I J K L M N O P Q R S T U V W X Y Z

Misc Unsigned Bands - Olympose - Looking Away tab

Olympose- Looking Away

STANDARD TUNING

ORDER:

INTRO
CHORUS
VERSE
SOLO
CHORUS
VERSE
OUTRO

INTRO

E--------------------------------------------------------------|
B--------------------------------------------------------------|
G--------------------------------------------------------------|
D----2-2-5-5-5-5-------------2-2-5-5-5-5-----------------------|
A----0-0-3-3-3-3-5-5-2-2-2-2-----3-3-3-3-5-5/-7-7-7-7----------|
E----------------3-3-0-0-0-0-------------3-3/-5-5-5-5----------| X2

CHORUS

E------------------------|
B------------------------|
G------------------------|
D------------------------|
A--7-7/10-10\-3-3-2-2----|
E--5-5/-8--8\-5-5-0-0----|X4

E-----------------------|
B-----------------------|
G-----------------------|
D-----------------------|
A--7-7\-3-3/-10-10/-13--|
E--5-5\-5-5/--8--8/-11--|X2

VERSE

E-------------------------------------------------|
B-------------------------------------------------|
G-------------------------------------------------|
D---0-3-5--0-3-5--0-3-5--0-3-1--0-3-1--0-3-1------|
A---0-3-5--0-3-5--0-3-5--0-3-1--0-3-1--0-3-1------|
E---0-3-5--0-3-5--0-3-5--0-3-1--0-3-1--0-3-1------|X5

SOLO

E-------------------------------------------------------------|
B-------------------------------------------------------------|
G-------------------------------------------------------------|
D---3h5p-------3h5p--------4h6p-------4h6p--------------------|
A--------5-3-2------5-3/-9------7-5-4------7-5/-10------------|
E-------------------------------------------------------------|X2

OUTRO

E-------------------------------------------------------|
B-------------------------------------------------------|
G-------------------------------------------------------|
D-------------------------------------------------------|
A----7/----10/----5----2-2-2-2--------------------------|
E----5/-----8/----3----0-0-0-0--------------------------|X2

E--------------------------------------------------------|
B--------------------------------------------------------|
G--------------------------------------------------------|
D--------------------------------------------------------|
A----7\----3/----10/----13-13-13-------------------------|
E----5\----5/-----8/----11-11-11-------------------------|



/= SLIDE UP
\= SLIDE DOWN
h= HAMMER ON
p= PULL OFF
Tap to rate this tab
 
# A B C D E F G H I J K L M N O P Q R S T U V W X Y Z