Misc Unsigned Bands - Olympose - A Fight For You tab

Tuning:

e|--0---0----2---2-----3----3---2-----|
B|----0---0----0----0-----0---0-------|
G|------------------------------------|
D|------------------------------------|
A|------------------------------------|
E|--0---0----0---0-----0----0---0-----|X5

e|--0---0----5---5-----2----2---3-----|
B|----0---0----0----0-----0---0-------|
G|------------------------------------|
D|------------------------------------|
A|------------------------------------|
E|--0---0----0---0-----0----0---0-----|X5

e|--0---0----2---2-----3----3---2-----|
B|----0---0----0----0-----0---0-------|
G|------------------------------------|
D|------------------------------------|
A|------------------------------------|
E|--0---0----0---0-----0----0---0-----|X5

e|--0---0----5---5-----3----3---2-----|
B|----0---0----0----0-----0---0-------|
G|------------------------------------|
D|------------------------------------|
A|------------------------------------|
E|--0---0----0---0-----0----0---0-----|X5

e|--0---0----2---2-----3----3---2-----|
B|----0---0----0----0-----0---0-------|
G|------------------------------------|
D|------------------------------------|
A|------------------------------------|
E|--0---0----0---0-----0----0---0-----|X5

e|--0---0----7---7-----3----3---5-----|
B|----0---0----0----0-----0---0-------|
G|------------------------------------|
D|------------------------------------|
A|------------------------------------|
E|--0---0----0---0-----0----0---0-----|X5

e|--3---3----7---7-----5----5---8-----|
B|----0---0----0----0-----0---0-------|
G|------------------------------------|
D|------------------------------------|
A|------------------------------------|
E|--0---0----0---0-----0----0---0-----|X5

e|--0---0----2---2-----3----3---2-----|
B|----0---0----0----0-----0---0-------|
G|------------------------------------|
D|------------------------------------|
A|------------------------------------|
E|--0---0----0---0-----0----0---0-----|X5
Tap to rate this tab
 
# A B C D E F G H I J K L M N O P Q R S T U V W X Y Z