Song name
# A B C D E F G H I J K L M N O P Q R S T U V W X Y Z

Misc Unsigned Bands - Xntrxxmusic - Harmonoise tab

  Am	           Em               G               F
e|---------------|-0-------------|---------------|---------------|
B|-1-0-1---0-1---|-0-3-----------|-3-1-0---------|-1-0-----------|
G|-2-----2-------|-0---0---------|-0-------------|-2---2---------|
D|-2-------------|-2-------------|-0-------------|-3-------------|
A|-0-------------|-2-------------|-2-------------|---------------|
E|---------------|-0-------------|-3-------------|(1)------------|


   E	         
e|---------------|
B|-0-------------|
G|-1-------------|
D|-2-------------|
A|---------------|
E|---------------|
   
Tap to rate this tab
 
# A B C D E F G H I J K L M N O P Q R S T U V W X Y Z