Song name
# A B C D E F G H I J K L M N O P Q R S T U V W X Y Z

Misc Unsigned Bands - Killer Cody - Your Personal Saviors tab

-----------------------------------------------------------------------------
       Killer Cody - Your Personal Saviors (www.musicshovelcomics.com)
-----------------------------------------------------------------------------
Tabbed by:Pete
Email:Pdiggzwaggle@gmail.com

Tuning:Standard

The song is pretty much 3 chords all the way through.

Bm: x24432
A : 002220
E7: 020100


Verse: Bm     A     E7 (strum: down, up, down, up, down, up)
e|-----2------------0~0-0-0-0-0-----------------------------------------------|
B|-----3------2-----0~0-0-0-0-0-----------------------------------------------|
G|-----4------2-----1~1-1-1-1-1-----------------------------------------------|
D|-----4------2-----0~0-0-0-0-0-----------------------------------------------|
A|--2-------0-------2~2-2-2-2-2-----------------------------------------------|
E|----------------0-----------------------------------------------------------|

Repeat as many times necessary

Chorus is just the same chords, but strummed:

Bm-A-E7

-----------------------------------------------------------


Verse 1:
Bm       A        E7
He has a girlfriend, but he hates to kiss her
Could give a good god damn about his mothers scriptures
Hits the sidewalk with his hammer till it's cracked and,
his hands are blistered.


Chorus:
(E7)                   Bm       A       E7
  They Call him killer Cody (che-che-haa-haa) x4


verse 2:
There's something off about the boy, the neighbors whisper
His 2nd favorite things his fathers old Winchester
The first is the pleasure watching animal eyes
lose lively luster

Chorus

Verse 3:
Bm         A          E7
His finger tips are scared from repeated needle pricks
He likes to watch how the blood darkens when it drips
no body says it straight to his face
but he likes it, when he hears em' say

chorus

music break---

e|-------------------------------------------------------------------------|
B|-------------------------------------------------------------------------|
G|---------2~------2-----------1~--------0---------------------------------|
D|----4----2~----2-------------0~------0-----------------------------------|
A|--2---2--0~--0-----------2---2~----2-------------------------------------|
E|-----------------------0---0-----0---------------------------------------|
                                           Then start back at Bm

chorus

That's it!

This song is here: http://soundcloud.com/your-personal-saviors/killer-cody

Enjoy!



************************************

| /   slide up
| \   slide down
| h   hammer-on
| p   pull-off
| ~   let it ring
| +   harmonic
| x   Mute note
| b   Bend
| pb  Pre-bend
| br  Bend release
| pbr Pre-bend release
| brb Bend release bend

************************************
Tap to rate this tab
 
# A B C D E F G H I J K L M N O P Q R S T U V W X Y Z