Song name
# A B C D E F G H I J K L M N O P Q R S T U V W X Y Z

Misc Unsigned Bands - Valentines Fallacy - The Drowning tab

#----------------------------------PLEASE NOTE---------------------------------#
#This file is the author's own work and represents their interpretation of the #
#song. You may only use this file for private study, scholarship, or research. #
#------------------------------------------------------------------------------##

			      "THE DROWNING"
			    TABBED AND PLAYED BY
				RUSSELL LEE

Check out the .mp3 file on my profile.

Song: The Drowning
Band: Valentine's Fallacy
Guitarist: Russell Lee (Yours Truly)
Tabber: Russell Lee
Email: rdlee91894@yahoo.com (No spam plz)

Effects used: Chorus Flange and Tape Echo.
              Both used throughout whole song.

Gtr I (C G C F A D) - 'Untitled'

 4/4
  GTR I

|-10h12-------------12-13-15b17-------------|-------------------------------------------||
|-------13p12p10----------------8-5h6p5-6~--|-------------------------------------------||
|----------------12-------------------------|-9-7-9~--7-5-7~--5-4~-------5~---7-5-0-----||
|-------------------------------------------|------------------------5-7----------------||
|-------------------------------------------|-------------------------------------------||
|-------------------------------------------|-------------------------------------------||
|-------------------------------------------|-------------------------------------------||

|-3-5-----5-7-----7-9-----------------------|-12-15-17b19-15-17-19b21-19-21b22-22b23--20||
|-----5b7-----7b9-----9b11------------------|-------------------------------------------||
|------------------------------5~---7-5-----|-------------------------------------------||
|--------------------------5-7----------5~--|-------------------------------------------||
|-------------------------------------------|-------------------------------------------||
|-------------------------------------------|-------------------------------------------||

|-------------------------------------------||
|-------------------------------------------||
|-------------------------------------------||
|7-9-10-5-3~--------------------------------||
|-------------------------------------------||
|-------------------------------------------||



|

Tablature Legend
----------------
 h   - hammer-on
 p   - pull-off
 b   - bend
 /\  - slide into or out of (from/to "nowhere")
  - natural harmonic
 ~   - vibrato
 PM  - palm muting

Tap to rate this tab
 
# A B C D E F G H I J K L M N O P Q R S T U V W X Y Z