Misc Unsigned Bands - Saucy Monky - Disco Ball tab

Artist: Saucy Monky
Song: Disco Ball	
Album: Turbulence
Tuning: Standard

Intro

e |----0--------0--------3-----|
B |----1--------1--------3-----|
G |----2--------0--------3-----| 
D |----3--------2--------5-----|
A |----3--------3--------5-----| 	
E |----0--------3--------3-----|

Verse 1

e |----0--------0--------3-----|
B |----1--------1--------3-----|
G |----2--------0--------3-----| (x4)
D |----3--------2--------5-----|
A |----3--------3--------5-----| 	
E |----0--------3--------3-----|

Yellow cab
Windows down
Traffic lights
Blinking slowly
I like you
Coz youíre fun
Keep me far away from tomorrow

Pre-chorus

e |----1--------0--------3-----|
B |----1--------0--------3-----|
G |----1--------0--------0-----| (x2)
D |----3--------2--------0-----|
A |----3--------2--------2-----| 	
E |----1--------0--------3-----|

Sunís coming up sunís coming up
Itís coming up

Chorus

e |----0--------0--------0-----|
B |----0--------0--------0-----|
G |----1--------0--------2-----| (x2)
D |----2--------0--------2-----|
A |----2--------2--------0-----| 	
E |----0--------3--------0-----|


Disco ball spinning Ďround
Shoulder to shoulder
Keep your world underground
Your head above water

Interlude

e |----0--------0--------0-----|
B |----0--------0--------0-----|
G |----1--------0--------2-----| (x2)
D |----2--------0--------2-----|
A |----2--------2--------0-----| 	
E |----0--------3--------0-----|

Spin spin spin around

Verse 2 
Leather boots
Vintage shirt
Dress me up In the moment
Heavy heart
Donít despair
Youíll be saved in the eleventh hour

Pre-chorus 

Chorus 

Pre-chorus

Chorus

Interlude

e |----0----------|
B |----0----------|
G |----1----------| 
D |----2----------|
A |----2----------| 	
E |----0----------|
Tap to rate this tab
 
# A B C D E F G H I J K L M N O P Q R S T U V W X Y Z