Song name
# A B C D E F G H I J K L M N O P Q R S T U V W X Y Z

Misc Unsigned Bands - Canvas Trees - That Sweet Girl tab

-------------------------------------------------------------------------------
			     That Sweet Girl - Canvas Trees
-------------------------------------------------------------------------------
Tabbed by:Canvas_Trees
Email: grlushington@yahoo.com

Tuning:Standard

Capo On 3rd fret

e|-------------10--9--7----------------------------|-------------------------|
B|--7--8--10-------------10---8---7----------------|-------------------------|
G|------------------------------------9--7--6--7---|-------------------------|
D|-------------------------------------------------|-------------------------|
A|-------------------------------------------------|-------------------------|
E|-------------------------------------------------|-------------------------|

e|-------------10--9--7--9--10-----------------------------------------------|
B|--7--8--10--------------------10--8--7--8/10-------------------------------|
G|---------------------------------------------------------------------------|
D|---------------------------------------------------------------------------|
A|---------------------------------------------------------------------------|
E|---------------------------------------------------------------------------|

A pause, then:
     E                    G          C7         D
e|------------------------3----------3----------3----------------------------|
B|------------------------3----------3----------2----------------------------|
G|---0---------2----------0----------0----------3----------------------------|
D|---2---------0----------0----------2----------0----------------------------|
A|---2---------0----------2----------3---------------------------------------|
E|---0---------2----------3--------------------------------------------------|

Listen to the song for timing (on youtube)
Outro:
e|-------------10--9--7--9--10-----------------------------------------------|
B|--7--8--10--------------------10--8--7--8/10-------------------------------|
G|---------------------------------------------------------------------------|
D|---------------------------------------------------------------------------|
A|---------------------------------------------------------------------------|
E|---------------------------------------------------------------------------|

e|---------------------------------------------------------------------------|
B|---------------------------------------------------------------------------|
G|--9--7--6-------------------7--9--7--5-------------------------------------|
D|-----------7/9--7--5--7--5-------------------------------------------------|
A|---------------------------------------------------------------------------|
E|---------------------------------------------------------------------------|

************************************

| /   slide up
| \   slide down
| h   hammer-on
| p   pull-off
| ~   vibrato
| +   harmonic
| x   Mute note
| b   Bend
| pb  Pre-bend
| br  Bend release
| pbr Pre-bend release
| brb Bend release bend

************************************
Tap to rate this tab
 
# A B C D E F G H I J K L M N O P Q R S T U V W X Y Z