Song name
# A B C D E F G H I J K L M N O P Q R S T U V W X Y Z

Misc Unsigned Bands - The Poets Dance - Saturated tab

-------------------------------------------------------------------------------
			     Saturated - The Poets Dance
-------------------------------------------------------------------------------
Guitar: 1
Tuning: Standard

Intro/Verse pt.1/Outro: x2
e|-------------------------|---------------------------------------------------|
B|-------------------------|---------------------------------------------------|
G|-------------17-15-------|-------------13-12---------------------13-12-15/17-|
D|-------17----------17----|-------13----------13------------13----------------|
A|-15-15----15----------15-|-11-11----11----------11---11-11----11-------------|
E|-------------------------|---------------------------------------------------|
   .  .     .           .    .  .     .           .    .   .    .
                        
Verse pt.2:   PC/Interpart/Bridge   Chorus:
e|-----------|-------------------|---------------------------------------------|
B|-----------|-------------------|---------------------------------------------|
G|-5---------|-----3---5---3---5-|---------8---------------8-------------------|
D|-5---6-----|-6---3---5---3---5-|-10--6---8---8---6---8---8---6---------------|
A|-3---6-----|-6---1---3---1---3-|-10--6---6---8---6---8---6---6---------------|
E|-3---4-----|-4---1---3---1---3-|-8---4---6---6---4---6---6---4---------------|
   .   .      (stay on C into chorus)

Bridge:
e|----------------------------------------------------8---8---10---11----------|
B|------------------------------------8-------8--------------------------------|
G|----7-8-7----7-8-7---7-8-7---7-8-7----7-8-7---7-8-7---7---7----7----7--------|
D|-10-------10-------8-------8-------------------------------------------------|
A|-----------------------------------------------------------------------------|
E|-----------------------------------------------------------------------------|
                                                                           x3

e|------------------------------------------------------------------------------|
B|------------------------------15-----------15---------------------------------|
G|-7-8-10-8--12-10-13-10--15-12----12--15-12----12--17-15-17-15-17-15-19-19-19b-|
D|------------------------------------------------------------------------------|
A|------------------------------------------------------------------------------|
E|------------------------------------------------------------------------------|


Breakdown:   (lead)
e|-------|-------------|-------------------------------------------------------|
B|-------|-------------|-------------------------------------------------------|
G|-8-----|-8---10---12-|-------------------------------------------------------|
D|-8---6-|-x---x----x--|-------------------------------------------------------|
A|-6---6-|-6---8----10-|-------------------------------------------------------|
E|-6---4-|-------------|-------------------------------------------------------|


************************************
| .   palm mute
| /   slide up
| \   slide down
| h   hammer-on
| p   pull-off
| ~   vibrato
| +   harmonic
| x   Mute note
| b   Bend
| pb  Pre-bend
| br  Bend release
| pbr Pre-bend release
| brb Bend release bend

************************************
Tap to rate this tab
 
# A B C D E F G H I J K L M N O P Q R S T U V W X Y Z