Misc Unsigned Bands - Bring The Heat - Checkmate tab

-----------------------------------------------------------------------------
			                                 Checkmate- Bring The Heat
-----------------------------------------------------------------------------
Tabbed by: Ben Campbell
Email: Alivebutnotintact@gmail.com
Band: Bring The Heat
Song: Checkmate
www.myspace.com/bringtheheat570

Tuning: Drop A (or Drop B. your choice)
When I started to figure the song out my guitar was in drop A. So I tabbed it in drop A. 
However Im pretty sure its just in drop B though. I like using drop A because in the 
first breakdown I like chugging the bottom a and e open. If you use drop B just 
play everything 2 frets lower.

Also, I tabbed it like I play it with one guitar. I add a few random extra things to 
make one guitar a little more heavy.

Listen to figure out weather to palm mute hard or light. and when to let it ring

Intro
|------------------------------------------------------------------------|
|------------------------------------------------------------------------|
|------------------------------------------------------------------------|
|------------------------------------------------------------------------|x2
|--22222--2--222-222-2--2------------------------------------------------|
|--22222--2--222-222-2--2--6b-5b-4b-3b-----------------------------------|



|------------------------------------------------------------------------|
|------------------------------------------------------------------------|
|------------------------------------------------------------------------|
|--------------------------------------------------------9-7-9-10-9-7----|
|--2-----------------------------2-----------------------7-5-7-8--7-5----|
|--2-----------------------------2---------------------------------------|


|-----------------///////////xxx-------------------------------------------|
|-----------------///////////xxx-------------------------------------------|
|-----------------///////////xxx-------------------------------------------|
|-----------------///////////xxx---------------------------9-7-9-10-9-7b---|
|--2--------------///////////xxx---2-----------------------7-5-7-8--7-5b---|
|--2--------------///////////xxx---2---------------------------------------|


So you think your tough now. When you spit that fucking shit off your tongue. When you 
see me face to fucking face. You aint got shit to say.
|------------------------------------------------------------------------|
|------------------------------------------------------------------------|
|------------------------------------------------------------------------|
|------------------------------------------------------------------------|x2
|---------222-222--222-2-222-222--222-2-222-222--222-2-222-222-----------|
|---------222-222--222-2-222-222--222-2-222-222--222-2-222-222-2-2--2----|



Waiting and fucking waiting. Waiting to fucking knock you out.
|------------------------------------------------------------------------|
|------------------------------------------------------------------------|
|------------------------------------------------------------------------|
|------------------------------------------------------------------------|x2
|--000-000--000-0-000-000-----------000-000--000-0-000-000---------------|
|--000-000--000-0-000-000--000-000--000-000--000-0-000-000---0--0--0-----|

* Here is where I like drop A ( On the 2nd time dont play the 0--0--0)


You sit and stare. And run your mouth. But in the end. Were all your talking about.
|--------------------------------------------------------------------------|
|--------------------------------------------------------------------------|
|--------------------------------------------------------------------------|
|---------------9-10-------------------------------------------------------|x2
|-----2---2222--7-8------------2---2222--6--5---6--3--5/6------------------|
|-----2---2222--9*10*---- ------2---2222--6--5---6--3--5/6-----------------|

* because one guitar seems play the 9/7 and 10/8 and the other an octave lower on the 
low a and e strings, I like to still use the low a to keep the sound full.



|---------------------------------------------------------------------------|
|---------------------------------------------------------------------------|
|----9----------------------------------------------------------------------|
|----9----------------------------------------------------------------------|
|----7------------------------------\\\\\\\\\\2-----------------------------|
|-----------------------------------\\\\\\\\\\2-----------------------------|
                                                        (slide down and pick scrape the 
chord and let it ring)
** 2nd guitar plays lowest string on the 2nd fret and lets it ring. Not tabbed though.

You try to mislead us. You will never defeat us. Never defeat us
|------------------------------------------------------------------------|
|------------------------------------------------------------------------|
|------------------------------------------------------------------------|
|------------------------------------------------------------------------|x2
|---222-222--222-2-222-222--222-2-222-222--222-2-222-222-----------------|
|---222-222--222-2-222-222--222-2-222-222--222-2-222-222-----------------|


Never defeat.
|------------------------------------------------------------------------|
|------------------------------------------------------------------------|
|------------------------------------------------------------------------|
|------------------------------------------------------------------------|x2
|---222-222--222-2-222-222---------------------222-2-222-222-------------|
|---222-222--222-2-222-222--2-2-2-2-2-2-2-2-2--222-2-222-222-------------|


Your words have no meaning so dont bother keep my name from your throat. Back up. Back up.
|------------------------------------------------------------------------|
|------------------------------------------------------------------------|
|------------------------------------------------------------------------|
|------------------------------------------------------------------------|x2
|---2-2-2-2-2-2-2-2-3-3-3-3-3-3-3-2--------------2-2-2-------------------|
|---3-3-3-3-3-3-3-3-2-2-2-2-2-2-2-2--------------2-2-2-------------------|


|------------------------------------------------------------------------|
|------------------------------------------------------------------------|
|------------------------------------------------------------------------|
|------------------------------------------------------------------------|
|---2--------------------------------------------------------------------|
|---2--------------------------------------------------------------------|


End

and again if you decide to play it in drop B play everything 2 frets lower.

Stay metal
Tap to rate this tab
 
# A B C D E F G H I J K L M N O P Q R S T U V W X Y Z