Song name
# A B C D E F G H I J K L M N O P Q R S T U V W X Y Z

Misc Unsigned Bands - Viktor Cepeda - Minecraft Everyday Acoustic tab

-------------------------------------------------------------------------------
			     Minecraft Everyday - Viktor Cepeda
-------------------------------------------------------------------------------
Tabbed by: JamieMin0r
Email: JamieMin0r@live.co.uk

Tuning: EADGBE

Intro:
lead -
e|------------------------|
B|-----------9-10-10-10---|   
G|-----7-8-10-------------|  x8
D|------------------------|
A|------------------------|
E|------------------------|

Chrords - F C Dm C x2


Verse(other verses are played the same):

F           C   Dm            C              F C Dm C
  Everybody is walking round mine town
F             C          Dm                C         F C Dm C
  Mining coal and iron, gold and what can be found.
Bb(A#)                    Dm      C
   Soon or later creepers come my way
Bb                        Dm           C
   I'll never find that diamond anyway   so


Chorus:

F  C         Dm  C        F    C Dm C
My tools keep on breaking away
 F       C     Dm       C        F C Dm
I got minecraft, log in everyday
C
Hey hey hey.

Bridge: 
Bb                      Dm C
my tools can't be found
Bb               Dm C
cause I died and
Bb                      Dm        C
there's a creeper bound, creeper bound


Solo: 

e|---------------------------------------------------------------------------|
B|---------------------------------------------------------------------------|
G|---------10--10-9-9-7-9------------5---------------------------------------|
D|------------------------7---7\5-7----7--------5--5-3---3-5------3h5-3------|
A|-----------------------------------------------------------5--5------------|
E|---------------------------------------------------------------------------|

Chords for solo: 
F C Dm C x2


Solo 2:
e|---------------------------------------------------------------------------|
B|-------------13---------------------------------------13--------------13---|
G|-----12/14--------12----12p10-----10---12p10---12/14------14----12\14----14|
D|-------------------------------12------------------------------------------|
A|---------------------------------------------------------------------------|
E|---------------------------------------------------------------------------|

e|------------------------------------------------------------------13h15--13|
B|-------------13---------------------------------------13--13--15--13h15--13|
G|-----12/14--------12----12p10-----10---12p10---12/14-----------------------|
D|-------------------------------12------------------------------------------|
A|---------------------------------------------------------------------------|
E|---------------------------------------------------------------------------|

e|---------------------------------------------------------------------------|
B|---------------------------------------------------------------------------|
G|-----14--12--10------------------------------------------------------------|
D|------------------12-------------------------------------------------------|
A|---------------------------------------------------------------------------|
E|---------------------------------------------------------------------------|

Solo 2 chords:

Bb(A#) Dm C x4

************************************
| /   slide up
| \   slide down
| h   hammer-on
| p   pull-off
| b   Bend
************************************

Lyrics:
everybody is walking round mine town
mining coal and iron, gold and what can be found.
soon or later creepers come my way
i'll never find that diamond anyway so
my tools keep on breaking away
I got minecraft, log in everyday.
hey hey hey.

(Guitar solo 1)

everybody keeps fallin' into lava
I blame the cows and pigs they push me cause they wanna.
soon or later spiders come my way.
i'll never find that diamond anyway. so
my tools keep on breaking away.
I got minecraft, log in everyday.

hey hey hey

(guitar solo 2)

my tools can't be found
cause I died and
there's a creeper bound, creeper bound

my tools keep on breaking away.
I got minecraft, log in everyday.
my tools keep on breaking away.
I got minecraft, log in everyday.

Tap to rate this tab
 
# A B C D E F G H I J K L M N O P Q R S T U V W X Y Z