Misc Unsigned Bands - Egyptian Hip Hop - Rad Pitt tab

My first tab which I worked out because I couldn't find a tab for this fantastic riff online.

--------------------------------------------------------------------
			     Rad Pitt (intro) - Egyptian Hip Hop
-------------------------------------------------------------------------------
Tabbed by: Sam


Tuning: Standard

e|-------17---16---14---16----14---12---------12----------------------------|
B|--------------------------------------14-----------14---------------------|
G|--------------------------------------------------------14---14----16-----|
D|--------------------------------------------------------------------------|
A|--------------------------------------------------------------------------|
E|--------------------------------------------------------------------------|

e|--------------------------------------------------------------------------|
B|----14---14---14----------------------------------------------------------|
G|---------------------16---14---16---14------------------------------------|
D|------------------------------------------14------------------------------|
A|--------------------------------------------------------------------------|
E|--------------------------------------------------------------------------|

************************************

| /   slide up
| \   slide down
| h   hammer-on
| p   pull-off
| ~   vibrato
| +   harmonic
| x   Mute note
| b   Bend
| pb  Pre-bend
| br  Bend release
| pbr Pre-bend release
| brb Bend release bend

************************************
-------
-------
Tap to rate this tab
 
# A B C D E F G H I J K L M N O P Q R S T U V W X Y Z