Song name
# A B C D E F G H I J K L M N O P Q R S T U V W X Y Z

Misc Unsigned Bands - Winter Wrap Up - Mlpfim tab

Heya evrypony guitarpony here! check this out
just finished tabbing winter wrap up all by ear!
tell me what you think about it

By the way tuning is half-step drop-d or smthing like that.

Intro(on piano)
but you can just strum once if you like
chords:(3 months of winter coolness and awesome holidays...)
D-Em-F#m-G
Bm-A-F#m-G
F#m-G-Bm-A(X2)

Verse1:(The time has come to welcome spring...)
D#|-----------------------------------------------------------------------------------|
A#|------3------------3----------3------------------------3------------3----------3---|
F#|--------2------------2----------2----------7-------------2------------2----------2-|
C#|----0------------0-----0----0----------------7-------0------------0-----0----0-----|
G#|-----------------------------------------5-----5---2---------2p0-------------------|
C#|--0---------0h2-----------4---------4/5------------------------------------4-------|

D#|------------------------------------------------------------------------------------------|
A#|---------------------3------------3----------3------------------------3------------3------|
F#|---------7-------------2------------2----------2----------7-------------2------------2----|
C#|-----------7-------0------------0-----0----0----------------7-------0------------0-----0--|
G#|-------5-----5---2---------2p0--------------------------5-----5---2---------2h4-----------|
C#|--4/5------------------------------------0---------0h5------------------------------------|

D#|-------------------------------------|
A#|------3------------------------------|
F#|----2---2----------7-----------7-----|
C#|--0------------------7-----------7-5-|
G#|-----------------5-----5-----5-----5-|
C#|------------0h5------------5-------5-|

Chorus1:(WINTER WRAP UP! WINTER WRAP UP!)
D-Em-A(X2)

Verse2:(Bringing home the southern birds...)
D-Em-F#m-G
Bm-A-F#m-G
Bm-A-D-G
Bm-C#-D-G

Chorus2:
D-Em-A(X3)

Verse3:(Little critters hibernate Under the snow and ice...)
repeat verse1

Chorus3(vocals clapping and percussions only)

Refrain:(No easy task to clear the ground Plant our tiny seeds...)
Bm-A-F#m-G(x2)
F#m-G-Bm-A
F#m-G-A

Chorus4:
repeat chorus2

Refrain2:(Now that I know what they all do I have to find my place...)
(Strum once)
D-Em-F#m-G
Bm-A-F#m-G(X3)
Bm-A~

Chorus5:
repeat chorus2

Outro:
(strum once)
D-Em-F#m-G-B#m-A-D

Thats pretty much it! oh and BTW I recommend using high D and Em notes
except for the D on the third line of the verses and the last D of the outro
Tap to rate this tab
 
# A B C D E F G H I J K L M N O P Q R S T U V W X Y Z