Misc Unsigned Bands - Tribes - Nightdriving Useless God tab

this is tabbed by ear from their Myspace version of this song, so any changes or 
corrections are welcome :) (same goes for the lyrics)

standard tuning.

intro:

e|-------------------------------------------------------------------------|
B|-8--8--6--6----8--8--6---------------------------------------------------|
G|--8--8--8--8----8--8--8--5--8-----------------x4-------------------------|
D|-------------------------------------------------------------------------|
A|-------------------------------------------------------------------------|
E|-------------------------------------------------------------------------|

verse:

Eb   Gm    Cm
last look
         Bb
keeps me out of trouble
Eb        Gm    Cm
that last drink
       Bb
got me seeing double
Eb   Gm   Cm
road kill
         Bb
makes my guts wanna spill
Eb     Gm        Cm
on the back seat now
        Bb
with my hair hanging down.

intro riff x 2 (chords accomp. Eb Bb Eb Ab)

chorus:
Eb            Cm         Bb       Eb
  what use is God if you can't see him,
Eb             Cm              Bb         Ab
  what use are friends if they don't want in,
Ab             Cm            Bb        Eb
  I'm running around with my head in a spin,
Eb            Cm         Bb    Ab
  what use is God if you never win.

intro riff x 2

verse 2:

Eb  Gm  Cm
6   am,
          Bb
watch the sun come up on,
Eb Gm   Cm
my-self,
          Bb
watch the headlights fly by,
Eb   Gm   Cm
road kill
         Bb
makes my guts wanna spill
Eb     Gm        Cm
on the back seat now
        Bb
with my hair hanging down.

chorus:
Eb            Cm         Bb       Eb
  what use is God if you can't see him,
Eb             Cm              Bb         Ab
  what use are friends if they don't want in,
Ab             Cm            Bb        Eb
  I'm running around with my head in a spin,
Eb            Cm         Bb    Ab
  what use is God if you never win.

solo:

e|-11-11-10-8---8--------------------------11-11-10-8--8-------------10-10b12|
B|------------11-11-8-------11-----------------------11-11-8------11---------|
G|--------------------10s12---12-10--------------------------10s12-----------|
D|----------------------------------13---------------------------------------|
A|---------------------------------------------------------------------------|
E|---------------------------------------------------------------------------|

e|-11-11-10-8---8--------------------------11-11-10-8--8---------------------|
B|------------11-11-8-------11-----------------------11-11-8---11b14---------|
G|--------------------10s12---12-10----------------------------12b15---------|
D|----------------------------------13---------------------------------------|
A|---------------------------------------------------------------------------|
E|---------------------------------------------------------------------------|

chorus:
Eb            Cm         Bb       Eb
  what use is God if you can't see him,
Eb             Cm              Bb         Ab
  what use are friends if they don't want in,
Ab             Cm            Bb        Eb
  I'm running around with my head in a spin,
Eb            Cm         Bb    Ab
  what use is God if you never win.
Tap to rate this tab
 
# A B C D E F G H I J K L M N O P Q R S T U V W X Y Z