Song name
# A B C D E F G H I J K L M N O P Q R S T U V W X Y Z

Misc Unsigned Bands - Takeback - Blue Death tab

x0-3-00-5-00--7-6-|    repeat 3 times
x-----------------|
x-----------------|
x-----------------|
x-----------------|
x-----------------|

x0-3-00-5-00--7s6-5s3--3-3-3--3-3--------|
x------------------------------------3-3-|
x----------------------------------------|
x----------------------------------------|
x----------------------------------------|
x----------------------------------------|

-CHORUS-
x0-0000-3-3333-0-3-0-3------|
x0-0000-2-2222-0------------|
x1-1111-3-3333-1------------|
x2-2222-0-0000-2------------|
x2-2222---------2-----------|
x0-0000---------0-----------|
_CHORUS END_
Repeat chorus 4 X

---solo1---

x12--10--12--10s3p0-22-0----------------|
x-------------------------------2p0h3p0-|
x---------------------------------------|
x---------------------------------------|
x---------------------------------------|
x---------------------------------------|

repeat Chorus 4X

---solo2---

x7-777--0--3--0-7s6--0-8h10p8s7-8877s3-33-0-|
x-------------------------------------------|
x-------------------------------------------|
x-------------------------------------------|
x-------------------------------------------|
x-------------------------------------------|

---chorus---
1X fade...

rate this song! By:Takeback
Tap to rate this tab
 
# A B C D E F G H I J K L M N O P Q R S T U V W X Y Z