Misc Unsigned Bands - Johnny V And The Wet Willies - Peecrowl tab

-------------------------------------------------------------------------------
			     SONG NAME - Band Name
-------------------------------------------------------------------------------
Tabbed by: John Valentine
Email:jvali10@aol.com

Tuning: EADGB (standard)

Capo on the second fret!

$ - (1    &   2    &    3  & 4   $    5    $ 6    &   7    &
     down up  rest down up rest  down up   rest   up  down up
     8    &
     down up)
<$> - Half of the strumming pattern (from 1-4) is Barred G chord and the other (&-8&) is 
Barred D chord

e|--3-5-5/8-5-3-------3-3-3---------------3-5-8/10-8-5-3-------------------|
B|-5------------5---3-3-3-3---------------5--------------5-3---------------|
G|----------------5---5-5-5p4-2------------------------------5-2-----------|
D|--------------------x-x-x-----5-2-4-5-4------------------------5-2-------|
A|--------------------x-x-x---------5-5-5----------------------------5-3-3-|
E|--------------------x-x-x------------------------------------------------|
                                                   $ $ $  $ $ $ <$>
e|-------3-3-3----2-2---2---2---2---2---22h3p2-0-2-3-2-0--3-2-0-3-2--------|
B|-------3-3-3----3-----3-------3-------3----------3-3-0--3-3-0-3-3--------|
G|-------4-5-4----2-----2-------2-------2----------0-2-0--4-2-0-4-2--------|
D|-4-5-4-------------------------------------------0-0-x--5-4-2-5-4--------|
A|-5-5-5-------------------------------------------x-x-x--5-5-2-5-5--------|
E|-2-3-2-------------------------------------------x-x-x--3-2-0-3-2--------|

Thanks,
enjoy
Tap to rate this tab
 
# A B C D E F G H I J K L M N O P Q R S T U V W X Y Z