Misc Unsigned Bands - Egyptian Hip Hop - Rad Pitt tab

Tabbed by Craigisthesex

this is just the main riff type thinggy



E|--17--16--14--16--14--12------12------12----------|
B|--------------------------14------14------14------|
G|----------------------------------------------14--|
D|--------------------------------------------------|
A|--------------------------------------------------|
E|--------------------------------------------------|



E|----------------------------------------------------------|
B|----------14--14--14--14--14------------------------------|
G|--14--16----------------------16--14--16--14--16--14------|
D|------------------------------------------------------14--|
A|----------------------------------------------------------|
E|----------------------------------------------------------|
Tap to rate this tab
 
# A B C D E F G H I J K L M N O P Q R S T U V W X Y Z