Song name
# A B C D E F G H I J K L M N O P Q R S T U V W X Y Z

Misc Unsigned Bands - Herman Emmink - Tulpen Uit Amsterdam tab

-------------------------------------------------------------------------------
			                 TULPEN UIT AMSTERDAM - Herman Emmink
-------------------------------------------------------------------------------
Tabbed by: Sithis
Email: sithis@live.be

Tuning: standard

This is the melody part:

e|--5--5--5---3--3---1--1---0--0------------------3--------------------------|
B|-----------------------------------3--3--3--3------3-----------------------|
G|---------------------------------------------------------------------------|
D|---------------------------------------------------------------------------|
A|---------------------------------------------------------------------------|
E|---------------------------------------------------------------------------|

e|--3--3--3---1--1---0--0-------------------------1--------------------------|
B|--------------------------3--3-----1--1--1--1------1-----------------------|
G|---------------------------------------------------------------------------|
D|---------------------------------------------------------------------------|
A|---------------------------------------------------------------------------|
E|---------------------------------------------------------------------------|

e|--8--8--8---7--7---5--5---3--3------------------7--------------------------|
B|-----------------------------------6--6--6--6------6-----------------------|
G|---------------------------------------------------------------------------|
D|---------------------------------------------------------------------------|
A|---------------------------------------------------------------------------|
E|---------------------------------------------------------------------------|

e|-----0--1--------------0--1---------0--1--3------3---3--5---1--------------|
B|--3---------3-------3---------1---------------1----------------------------|
G|---------------------------------------------------------------------------|
D|---------------------------------------------------------------------------|
A|---------------------------------------------------------------------------|
E|---------------------------------------------------------------------------|

e|--------8---7--5~~---3--5--8--8--7--5---3--1-------------------------------|
B|--5--6---------------------------------------------------------------------|
G|---------------------------------------------------------------------------|
D|---------------------------------------------------------------------------|
A|---------------------------------------------------------------------------|
E|---------------------------------------------------------------------------|

************************************

| /   slide up
| \   slide down
| h   hammer-on
| p   pull-off
| ~   vibrato
| +   harmonic
| x   Mute note
| b   Bend
| pb  Pre-bend
| br  Bend release
| pbr Pre-bend release
| brb Bend release bend

************************************
Tap to rate this tab
 
# A B C D E F G H I J K L M N O P Q R S T U V W X Y Z