Song name
# A B C D E F G H I J K L M N O P Q R S T U V W X Y Z

Misc Unsigned Bands - Bottlecap - Annoying tab

Annoying - Bottlecap

/ = Slide
X = Dead note

Intro:

e-----------------------------------------------------------------|
b-----------------------------------------------------------------|
g-----------------------------------------------------------------|
d-------7---7---7-------7---7---7-------7---7---7-------7---7---7-|
a-------7---7---7-------7---7---7-------7---7---7-------7---7---7-|
e-3/5-X-5-X-5-X-5-3/5-X-5-X-5-X-5-3/5-X-5-X-5-X-5-3/5-X-5-X-5-X-5-|

Man Riff (also the chorus) X4

e-----------------------------|
b-----------------------------|
g-----------------------------|
d-7-7---------7-7-7-----------|
a-7-7---------7-7-7-----------|
e-5-5-0-3-5-3-5-5-5-0-3-5-3-5-|

Main Riff the 4th time:

e-----------------|
b-----------------|
g-----------------|
d-7-7---------7-5-|
a-7-7---------7-5-|
e-5-5-0-3-5-3-5-3-|

Verse (muted) X4

e-------------5-3-|
b-------------5-3-|
g-------------5-4-|
d-------------7-5-|
a-7-7---------7-5-|
e-5-5-0-3-5-3-5-3-|

Stick X4

e-----------------------------------------------------------------|
b-----------------------------------------------------------------|
g-------------------------------------------------------7---7---7-|
d-------7---7---7-------5---5---5-------3---3---3-------7---7---7-|
a-------7---7---7-------5---5---5-------3---3---3-3/5-X-5-X-5-X-5-|
e-3/5-X-5-X-5-X-5-1/3-X-3-X-3-X-3-1/1-X-1-X-1-X-1-----------------|
Tap to rate this tab
 
# A B C D E F G H I J K L M N O P Q R S T U V W X Y Z