Misc Unsigned Bands - Brand New Heroes - Olis Song tab

-------------------------------------------------------------------------------
			     Oli's Song - Brand New Heroes
-------------------------------------------------------------------------------
Tabbed by: L. Rickersey
Email:

Tuning: Drop D

VERSE -

e|--------------------------------------------------------------------------|
B|--------------------------------------------------------------------------|
G|---7777777777777777--7777777777777777--1111111111111111-99999999----------|
D|---0000000000000000--0000000000000000--0-0-0-0-0-0-0-0--00000000----------|
A|---5555555555555555--0000000000000000--0-0-0-0-0-0-0-0--00000000----------|
E|---0000000000000000--5555555555555555--9-9-9-9-9-9-9-9--77777777----------|

e|---------------------------------------------------------------------------|
B|---------------------------------------------------------------------------|
G|--77777777--77777777----7777777777777777--7777777777777777-----------------|
D|--00000000--00000000----0000000000000000--0000000000000000-----------------|
A|--00000000--00000000----5555555555555555--0000000000000000-----------------|
E|--55555555--44444444----0000000000000000--5555555555555555-----------------|

e|---------------------------------------------------------------------------|
B|---------------------------------------------------------------------------|
G|--1111111111111111-99999999--77777777--77777777--0------------------------|
D|--0-0-0-0-0-0-0-0--00000000--00000000--00000000--0------------------------|
A|--0-0-0-0-0-0-0-0--00000000--00000000--00000000--0------------------------|
E|--9-9-9-9-9-9-9-9--77777777--55555555--44444444--0------------------------|


CHORUS -

e|---------------------------------------------------------------------------|
B|---------------------------------------------------------------------------|
G|---------------------------------------------------------------------------|
D|--00000000--44444444--5555555555557777----00000000--44444444---------------|
A|--00000000--44444444--5555555555557777----00000000--44444444---------------|
E|--00000000--44444444--5555555555555555----00000000--44444444---------------|

e|---------------------------------------------------------------------------|
B|---------------------------------------------------------------------------|
G|---------------------------------------------------------------------------|
D|--00000000--44444444--55555555--777777777----------------------------------|
A|--00000000--44444444--55555555--777777777----------------------------------|
E|--00000000--44444444--55555555--777777777----------------------------------|


PRE-VERSE -

e|---------------------------------------------------------------------------|
B|---------------------------------------------------------------------------|
G|--7-7-7-7--7-7-7-7--7-7-7-7--7-7-7-7---------------------------------------|
D|--0-0-0-0--0-0-0-0--0-0-0-0--0-0-0-0---------------------------------------|
A|--5-5-5-5--5-5-5-5--5-5-5-5--5-5-5-5---------------------------------------|
E|---------------------------------------------------------------------------|


VERSE

CHORUS

INTERLUDE -

e|---------------------------------------------------------------------------|
B|---------------------------------------------------------------------------|
G|--1111111111111111-1111111111111111-1111111111111111-9999999999999999------|
D|--0-0-0-0-0-0-0-0--0-0-0-0-0-0-0-0--0-0-0-0-0-0-0-0--0000000000000000------|
A|--9-9-9-9-9-9-9-9--1010101010101010----------------------------------------|
E|------------------------------------9-9-9-9-9-9-9-9--7777777777777777------|

e|---------------------------------------------------------------------------|
B|---------------------------------------------------------------------------|
G|--1111111111111111-1111111111111111------------------9999999977777777------|
D|--0-0-0-0-0-0-0-0--0-0-0-0-0-0-0-0--0-0-0-0-0-0-0-0--0000000000000000------|
A|--9-9-9-9-9-9-9-9--1010101010101010----------------------------------------|
E|------------------------------------9-9-9-9-9-9-9-9--7777777755555555------|


CHORUS x2


(Second Guitar, 2nd Chorus)

e|---------------------------------------------------------------------------|
B|---------------------------------------------------------------------------|
G|--7-7-7-7--7-7-7-7--9-9-9-9--11111111-7-7-7-7--7-7-7-7--7-7-7-7--7-7-7-7---|
D|--0-0-0-0--0-0-0-0--0-0-0-0--0-0-0-0--0-0-0-0--0-0-0-0--0-0-0-0--0-0-0-0---|      x2
A|--5-5-5-5--5-5-5-5--7-7-7-7--9-9-9-9--0-0-0-0--0-0-0-0--0-0-0-0--0-0-0-0---|
E|--------------------------------------5-5-5-5--5-5-5-5--5-5-5-5--5-5-5-5---|


************************************

| /   slide up
| \   slide down
| h   hammer-on
| p   pull-off
| ~   vibrato
| +   harmonic
| x   Mute note
| b   Bend
| pb  Pre-bend
| br  Bend release
| pbr Pre-bend release
| brb Bend release bend

************************************
Tap to rate this tab
 
# A B C D E F G H I J K L M N O P Q R S T U V W X Y Z