Song name
# A B C D E F G H I J K L M N O P Q R S T U V W X Y Z

Misc Unsigned Bands - Takeback - Moneyville tab

p = pull off     h = hit on
#/# = slide up     e... = let ring(echo)

intro

e------------------------------------------------------------|
b------------------------------------------------------------|
g--------2---3-2-1-0e.............             repeat intro--| 4X
d--0000---2--------------------------------------------------|
a------------------------------------------------------------|
e------------------------------------------------------------|

-----CHORUS1-----
   G      D      A      E
e3333-3333-0000-0000----------------|
b0000-2222-2222-0000----------------|
g0000-3333-2222-1111        repeat--| 2X
d0000-0000-2222-2222----------------|
a2222--------0000-2222--------------|
e3333--------------0000-------------|

   Repeat intro  1X

     SOLO1

e------0-3-7----5----3p0----0h3p0---------------------------------|
b-0--3--------5----3-----2-3------12-13-12/10---10/5-5------------|
g--------------------------------------------12/10---10/5---5-3p0-|
d-----------------------------------------------------------------|
a-----------------------------------------------------------------|
e-----------------------------------------------------------------|

Repeat chorus 8X

Repeat intro 2X (on 2nd, fade on last note)
Tap to rate this tab
 
# A B C D E F G H I J K L M N O P Q R S T U V W X Y Z