Misc Unsigned Bands - Heroes Make Martyrs - When All Falls Down tab

-------------------------------------------------------------------------------
			     When All Falls Down- HEROES MAKE MARTYRYS
-------------------------------------------------------------------------------
Tabbed by:ibanezboue
Email:djboue@yahoo.com

Tuning:Drop B

e|---------------------------------------------------------------------------|
B|------------------Intro--X2------------------------------------------------|
G|---------------------------------------------------------------------------|
D|---------------------------------------------------------------------------|
A|----8-7-10-------8-7-10-------10-8-7---------7-8-3-------------------------|
E|00----------00------------88---------1010----------------------------------|

e|------------------------------------------------------|--------------------|
B|---------Intro Harmony--X2----------------------------|--------------------|
G|------------------------------------------------------|--------------------|
D|------------------------------------------------------|---0~~-----PICK-----|
A|----12-10-13----12-10-13----13-12-10-----10-12-8------|---0~~----SCRAPE----|
E|-00----------00----------00-----------00--------------|---0~~--------------|

e|---------------------------------------------------------|-----------------|
B|---------verse--X-2--------------------------------------|-----------------|
G|---------------------------------------------------------|-----------------|
D|---------------------------------------------------------|-----------------|
A|---8--7--10-----8-7--10----10-8---7--------7----8----3---|-----------------|
E|00--0--0----000--0-0---888---8--8---101010---10---10-----|-----------------|

e|---------------------------------------------------------------------------|
B|---------------Verse Harmony--X-2------------------------------------------|
G|---------------------------------------------------------------------------|
D|---------------------------------------------------------------------------|
A|----12--10---13-----12--10--13-----13--12--10-----10---12--8---------------|
E|000---0----0----000---0---0----000---0---0----000----0---0-----------------|

e|-------------------------------------------------|-------------|-----------|
B|---------POST VERSE------------------------------|-------------|-----------|
G|-------------------------------------------------|-------------|-----------|
D|----------0~----------------0~------------0~-----|-FILL 1&3----|--FILL ----|
A|7h8p7-----0~------7h8p7-----0~--7h8p7-----0~-----|-10-8-7h8p7-3|1313121210-|
E|------10--0~--000-------10--0~--------10--0~-000-|---0-0-------|-----------|

e|-------|--------------------------|----------------------------------------|
B|-------|--------------------------|----------------------------------------|
G|-------|------DRUM FILL TO CHORUS-|----------------------------------------|
D|-2&4---|--------------------------|----------------------------------------|
A|101212-|--------------------------|----------------------------------------|
E|-------|--------------------------|----------------------------------------|



************************************

| /   slide up
| \   slide down
| h   hammer-on
| p   pull-off
| ~   vibrato
| +   harmonic
| x   Mute note
| b   Bend
| pb  Pre-bend
| br  Bend release
| pbr Pre-bend release
| brb Bend release bend

************************************
Tap to rate this tab
 
# A B C D E F G H I J K L M N O P Q R S T U V W X Y Z