Misc Unsigned Bands - Variation Of Kangaroo Man - Catching Trains tab

BASS - is played throughout
e|----------------|
B|----------------|
G|----------------|
D|----------------|
A|----1111----3355|
E|3333----1111----|

GUITAR 1 & 2


INTRO
e|----------------|
B|----------------|
G|----------------|
D|----------------|
A|----1111----3355|
E|3333----1111----|
<
e|----------------|
B|----------------|
G|----------------|
D|5555555555555555|
A|5555555555555555|
E|3333333333333333|



VERSE
e|--------------------------------|
B|--------------------------------|
G|--5---5---5---5-----------------|
D|-3-3-3-3-3-3-3-3-0---0---0---0-| X2
A|5---5---5---5----1-1-1-1-1-1-1-1|
E|----------------3---3---3---3---|
 |................................|
THEN
e|--------------------------------|
B|--------------------------------|
G|--5---5---5---5---0---0---0---0-| X2
D|-3-3-3-3-3-3-3-30-0-0-0-0-0-0-0|
A|5---5---5---5---1---1---1---1---|
E|--------------------------------|
 |................................|
<
e|----------------|
B|----------------|
G|----------------| X4
D|--------5555----|
A|------------3355|
E|33336666--------|
THEN
e|
B|888811111111 -----------|
G|777710101010777710101010|
D|55558888----777710101010---| X4
A|------------55558888-------|
E|---------------------------|



PRE CHORUS
e|-----------5-3------------------|
B|---5-3--------5----5-3----------|
G|222---5-222-----222---5-2222/5-0|
D|--------------------------------|
A|--------------------------------|
E|--------------------------------|
<
e|-------------------------------|
B|-------------------------------|
G|-------------------------------|
D|5------55------55------55------|
A|5------55------55------55------|
E|3------33------33------33------|

---------------------------------|
---------------------------------|
---------------------------------|
55XXXXXXX55XXXXXX55X5555555555555|
55XXXXXXX55XXXXXX55X5555555555555|
33XXXXXXX33XXXXXX33X3333333333333|



CHORUS
e|10----8-----8-------------|
B|-118---118---1110-881111--|
G|----10----10-----10-------|
D|--------------------------|
A|--------------------------|
E|--------------------------|
<
e|--------------------------------|
B|--------------------------------|
G|7755775577557755553355335533552-|
D|5555555555555555333333333333333-|
A|--------------------------------|
E|--------------------------------|



BREAK
e|----------------|
B|----------------|
G|------------5-7-|
D|--------5555----|
A|----------------|
E|33336666--------|
<
e|----------------|
B|----------------|
G|----------------|
D|--------5555----|
A|------------3355|
E|33336666--------|



BRIDGE/SOLO
e|-------|--3-------3-------3---------1-1-/6-/3/6-/3/6/3/8-/6/8-|
B|-AFTER-|---31------31------31---1-13-3------------------------|
G|---8---|-----322-----322-----323-3----------------------------|
D|-BARS--|------------------------------------------------------|
A|-------|------------------------------------------------------|
E|-------|------------------------------------------------------|

       /-3-\ /-3-\/-3--\/-3-\
/6/8/610p8p610p8p610p8p610p8p61313131315^17^15-|
--------------------------------------|
--------------------------------------|
--------------------------------------|
--------------------------------------|
--------------------------------------|
<
e|3|2|5|7|10|12|5|7|
B|-|-|-|-|-|-|-|-|
G|-|-|-|-|-|-|-|-| HOLD EACH NOTE   X2
D|-|-|-|-|-|-|-|-| FOR A BAR
A|3|2|5|7|10|12|5|7|
E|-|-|-|-|-|-|-|-|



OUTRO
e|----------------|    |-------------|
B|----------------|    |-------------|
G|------------5-7-| X3 |-------------|
D|--------5555----|THEN|--------5555-|
A|----------------|    |-------------|
E|33336666--------|    |33336666----3|
<
e|----------------|    |-------------|
B|----------------|    |-------------|
G|----------------|    |-------------|
D|--------5555----| X3 |--------5555-|
A|------------3355|THEN|-------------|
E|33336666--------|    |33336666----3|

ORDER
INTRO X4
VERSE
PRE CHORUS X2
CHORUS X4
BREAK X4
VERSE
PRE CHORUS X2
CHORUS X4
BRIDGE/SOLO
CHORUS X8
OUTRO

and thats it, an intense song, about as intense as an intense orange cupcake.
Tap to rate this tab
 
# A B C D E F G H I J K L M N O P Q R S T U V W X Y Z