Misc Unsigned Bands - Matthew Lapierre - Classical Piece 1 tab

This is a short neo-classical piece in the key of G harmonic minor. 
It has a rather fast tempo of 144bps, so I would recommend using a metronome. 
Enjoy!

Music by Matthew LaPierre

Gtr I (E A D G B E) 

  G  F# G  A  D  A  Bb C  D  C  Bb A  Eb C  Bb A
 4/4
  Gtr I
   S  S  S  S  S  S  S  S  S  S  S  S  S  S  S  S
|-------------------------10----------11----------|
|----------10-11-10-11-13----13-11-10----13-11-10-|
|-12-11-12----------------------------------------|
|-------------------------------------------------|
|-------------------------------------------------|
|-------------------------------------------------|


  G  F# G  A  G  F# E F# G  C  D  E  Bb A  Bb C
   S  S  S  S  S  S S  S  S  S  S  S  S  S  S  S
|-------------------------------------------------|
|----------10---------------10-11-13-11-10-11-13--|
|-12-11-12----12-11-9-11-12-----------------------|
|-------------------------------------------------|
|-------------------------------------------------|
|-------------------------------------------------|


  D  Bb C  D  Eb C  D  Eb F  Eb F  Eb D  C  D  C  Bb A
                              |---8----|
   S  S  S  S  S  S  S  S  S  S  S  S  S  S  S  S  S  S
|-10-------10-11----10-11-13-11h13p11p10----10----------|
|----11-13-------13----------------------13----13-11-10-|
|-------------------------------------------------------|
|-------------------------------------------------------|
|-------------------------------------------------------|
|-------------------------------------------------------|


  Eb C  Bb A  G  F# G  A  G  F# E F# G
   S  S  S  S  S  S  S  S  S  S S  S  Q
|-11-------------------------------------|
|----13-11-10----------10----------------|
|-------------12-11-12----12-11-9-11-12--|
|----------------------------------------|
|----------------------------------------|
|----------------------------------------|


  Eb D  Eb G  Eb Bb A  G  D  G  C  A  BbG  A F
   S  S  S  S  S  S  S  S  S  S  S  S S  S S S
|----------------------------------------------|
|----------------------------------------------|
|----------12----15-14-12----------------------|
|-13-12-13----13----------12----10----8----7---|
|----------------------------10----12---10---8-|
|----------------------------------------------|


  Eb G  A  Bb Eb Bb A  F  G  F#G  A BbA BbC
   S  S  S  S  S  S  S  S  S S  S S S S S  S
|--------------------------------------------|
|--------------------------------------------|
|--------------------------------------------|
|---------------------------------7-8-7-8-10-|
|----10-12-13----13-12----10-9-10------------|
|-11----------11-------13--------------------|


  D C  BbA EbC  BbA G  F#G  A G  F#E F#  G  A BbC  BbA BbC  D BbG D EbBbG Eb
  S  S S S S  S S S  S S  S S  S S S S    S S S  S S S S  S S S S S S S S S
|--------------------------------------|------------------------------------|
|--------------------------------------|------------------------------------|
|-7--------8---------------------------|--------------------7-----7-8-----8-|
|---10-8-7---10-8-7---------7----------|----7-8-10-8-7-8-10---8-5-----8-5---|
|-------------------10-9-10---10-9-7-9-|-10---------------------------------|
|--------------------------------------|------------------------------------|


                                                    H.=H
  C A F C BbG EbBbA F D A EbG A Bb  C BbA BbD BbA F G  D  G  Bb G5/D
  S S S S S S S S S S S S S S S S   S S S S S S S S  S  S  S  S  Q
|---------------------------------|-----------------------------^3---*|
|---------------------------------|-----------------------------^3---*|
|-5-----5-3-----3-2-----2---------|-5------------------------^3------*|
|---7-------5-------3-------5-7-8-|---8-7-8---8-7---------^5---------*|
|-----8-------6-------5---6-------|---------5-----8----^5------------*|
|---------------------------------|-----------------^3---------------*|


Duration Legend
---------------
W - whole; H - half; Q - quarter; E - 8th; S - 16th; T - 32nd; X - 64th; a - acciaccatura
+ - note tied to previous; . - note dotted; .. - note double dotted
Uncapitalized letters represent notes that are staccato (1/2 duration)
Irregular groupings are notated above the duration line
Duration letters will always appear directly above the note/fret number it represents the
duration for.  Duration letters with no fret number below them represent rests.  Multi-
bar rests are notated in the form Wxn, where n is the number of bars to rest for.  Low
melody durations appear below the staff

Tablature Legend
----------------
 h   - hammer-on
 p   - pull-off
 b   - bend
 pb  - pre-bend
 r   - bend release (if no number after the r, then release immediately)
 /\  - slide into or out of (from/to "nowhere")
 s   - legato slide
 S   - shift slide
  - natural harmonic
[n]  - artificial harmonic
n(n) - tapped harmonic
 ~   - vibrato
 tr  - trill
 T   - tap
 TP  - trem. picking
 PM  - palm muting
\n/  - tremolo bar dip; n = amount to dip
 \n  - tremolo bar down
 n/  - tremolo bar up
/n\  - tremolo bar inverted dip
 =   - hold bend; also acts as connecting device for hammers/pulls
 <>  - volume swell (louder/softer)
 x   - on rhythm slash represents muted slash
 o   - on rhythm slash represents single note slash

Misc Legend
-----------
 |  - bar
||  - double bar
||o - repeat start
o|| - repeat end
*|  - double bar (ending)
 :  - bar (freetime)
 $  - Segno
 &  - Coda
Tempo markers -  = BPM(8/16=s8/s16), where s8 = swing 8ths, s16 = swing 16ths
Tap to rate this tab
 
# A B C D E F G H I J K L M N O P Q R S T U V W X Y Z