Song name
# A B C D E F G H I J K L M N O P Q R S T U V W X Y Z

Misc Unsigned Bands - Ben Schneider - The Michael Ruess Song tab

guitar 1

(for intro)

e---12~~~~~~~~---12--15-14-14-12-----12-7-0~~-----------------0-2-3~~~--|
B-----------------------------------------------------------------------|
G-----------------------------------------------------------------------|
D-----------------------------------------------------------------------|
A-----------------------------------------------------------------------|
E------------------------------------------------0---2-3-5-0------------|

e-----------------0-2-3~~~---------------0/12---|
B-----------------------------------------------|
G-----------------------------------------------|
D-----------------------------------------------|
A-----------------------------------------------|
E---5--2-2-3-0---------------5--2-2-3-0---------|

e-----------------------|
B-----------------------|
G--9-9-9-9-9-9-9-9-9-9--|
D--9-9-9-9-9-9-9-9-9-9--| X4
A--7-7-7-7-7-7-7-7-7-7--|
E-----------------------|

e--0-12-12-12-12-14-12-14-15-17-17-17-17-17-15-14-10-12-14-15-14-15-17-15--|
B--------------------------------------------------------------------------|
G--------------------------------------------------------------------------|
D--------------------------------------------------------------------------|
A--------------------------------------------------------------------------|
E--------------------------------------------------------------------------|

e-14-19~~~-19/0-------|
B---------------------|
G---------------------|
D---------------------|
A---------------------|
E---------------------|

Refrain
e--7-7-7-5-3-5---------------12----12-12---12------|
B-------------------------------12-------12--------|
G--------------------------------------------------|
D--------------------------------------------------|
A--------------------------------------------------|
E--------------------------------------------------|

e--12-10-8------------------12----|
B----------12-10-8--7-8-7-5-------|
G---------------------------------|
D---------------------------------|
A---------------------------------|
E---------------------------------|

solo # 1 (very fast)

e--12p7p0-12p7p0-12p7p0-12p7p0-12p7p0-12p7p0-12p7p0-12p7p0-|
B----------------------------------------------------------|
G----------------------------------------------------------|
D----------------------------------------------------------|
A----------------------------------------------------------|
E----------------------------------------------------------|

e--10p7p0-10p7p0-10p7p0-10p7p0-10p7p0-10p7p0-10p7p0-10p7p0-|
B----------------------------------------------------------|
G----------------------------------------------------------|
D----------------------------------------------------------|
A----------------------------------------------------------|
E----------------------------------------------------------|

e--12p7p0-12p7p0-12p7p0-12p7p0-12p7p0-12p7p0-12p7p0-12p7p0-|
B----------------------------------------------------------|
G----------------------------------------------------------|
D----------------------------------------------------------|
A----------------------------------------------------------|
E----------------------------------------------------------|


e--12p7p0-12p7p0-14p7p0-14p7p0-15p7p0-15p7p0-|
B--------------------------------------------|
G--------------------------------------------|
D--------------------------------------------|
A--------------------------------------------|
E--------------------------------------------|

e--12p7p0-12p7p0-12p7p0-12p7p0-14p7p0-14p7p0-15p7p0-15p7p0-12p7p0-12p7p0-|
B------------------------------------------------------------------------|
G------------------------------------------------------------------------|
D------------------------------------------------------------------------|
A------------------------------------------------------------------------|
E------------------------------------------------------------------------|

e-12p7p0-12p7p0-14p7p0-14p7p0-15p7p0-15p7p0-16p7p0-16p7p0-|
B---------------------------------------------------------|
G---------------------------------------------------------|
D---------------------------------------------------------|
A---------------------------------------------------------|
E---------------------------------------------------------|

e-12p7p0-12p7p0-14p7p0-14p7p0-15p7p0-15p7p0-16p7p0-16p7p0-|
B---------------------------------------------------------|
G---------------------------------------------------------|
D---------------------------------------------------------|
A---------------------------------------------------------|
E---------------------------------------------------------|

e-19p7p0-19p7p0-19p7p0-19p7p0-19p7p0-19p7p0-19p7p0-19p7p0-19/0-|
B--------------------------------------------------------------|
G--------------------------------------------------------------|
D--------------------------------------------------------------|
A--------------------------------------------------------------|
E--------------------------------------------------------------|


e-------------12p14p15p14-12p14p15p12-19--|
B-----------------------------------------|
G--9--7--5~~------------------------------|
D--7--5--3~~------------------------------|
A--7--3--3~~------------------------------|
E-----------------------------------------|


(refrain)

solo # 2


e--12p7p0-12p7p0-12p7p0-12p7p0-12p7p0-12p7p0-12p7p0-12p7p0-|
B----------------------------------------------------------|
G----------------------------------------------------------|
D----------------------------------------------------------|
A----------------------------------------------------------|
E----------------------------------------------------------|

e--10p7p0-10p7p0-10p7p0-10p7p0-10p7p0-10p7p0-10p7p0-10p7p0-|
B----------------------------------------------------------|
G----------------------------------------------------------|
D----------------------------------------------------------|
A----------------------------------------------------------|
E----------------------------------------------------------|

e--12p7p0-12p7p0-12p7p0-12p7p0-12p7p0-12p7p0-12p7p0-12p7p0-|
B----------------------------------------------------------|
G----------------------------------------------------------|
D----------------------------------------------------------|
A----------------------------------------------------------|
E----------------------------------------------------------|

e--12p7p0-12p7p0-10p7p0-10p7p0-8p5p0-8p5p0-7p3p0-7p3p0-|
B------------------------------------------------------|
G------------------------------------------------------|
D------------------------------------------------------|
A------------------------------------------------------|
E------------------------------------------------------|

e--12p7p0-12p7p0-10p7p0-10p7p0-8p5p0-8p5p0-7p3p0-7p3p0-|
B------------------------------------------------------|
G------------------------------------------------------|
D------------------------------------------------------|
A------------------------------------------------------|
E------------------------------------------------------|

e-3p2p0-3p2p0-5p3p2-5p3p2-5p3p2-5p3p2-7p3p0-7p3p0-5p3p2-5p3p2-|
B-------------------------------------------------------------|
G-------------------------------------------------------------|
D-------------------------------------------------------------|
A-------------------------------------------------------------|
E-------------------------------------------------------------|

e-3p2p0-3p2p0-5p3p2-5p3p2-5p3p2-5p3p2-12p7p0-12p7p0-10p7p0-10p7p0-|
B-----------------------------------------------------------------|
G-----------------------------------------------------------------|
D-----------------------------------------------------------------|
A-----------------------------------------------------------------|
E-----------------------------------------------------------------|


e--12p7p0-12p7p0-10p7p0-10p7p0-8p5p0-8p5p0-7p3p0-7p3p0-|
B------------------------------------------------------|
G------------------------------------------------------|
D------------------------------------------------------|
A------------------------------------------------------|
E------------------------------------------------------|

e--12p7p0-12p7p0-10p7p0-10p7p0-8p5p0-8p5p0-7p3p0-7p3p0-|
B------------------------------------------------------|
G------------------------------------------------------|
D------------------------------------------------------|
A------------------------------------------------------|
E------------------------------------------------------|

e-0-3p0-12-12-12-10-8-7-8-7-5-7-5--3p2p0-3p2p0-5p3p2p-5p3p2-|
B-----------------------------------------------------------|
G-----------------------------------------------------------|
D-----------------------------------------------------------|
A-----------------------------------------------------------|
E-----------------------------------------------------------|

e-12p7p0-12p7p0-10p7p0-10p7p0--|
B------------------------------|
G------------------------------|
D------------------------------|
A------------------------------|
E------------------------------|

play the refrain two more times. then do solo # 3

solo # 3

(play these notes realy fast.)
e--0--2--3--5--7--12--7--5--3--0--2--3--2-----0--2--3--5--7--12----|
B------------------------------------------------------------------|
G------------------------------------------------------------------|
D------------------------------------------------------------------|
A------------------------------------------------------------------|
E------------------------------------------------------------------|

e--14--12--14--15--14--15--17--15--17--19--17--15--17--15--14--15--17-|
B---------------------------------------------------------------------|
G---------------------------------------------------------------------|
D---------------------------------------------------------------------|
A---------------------------------------------------------------------|
E---------------------------------------------------------------------|

e--15--14--12~~/0--|
B------------------|
G------------------|
D------------------|
A------------------|
E------------------|

e---------------10~~~-8~~~-10~~~--12-15-19-17-15-17-15-14-15-14-15-12--|
B----------------------------------------------------------------------|
G--9--7--5--7----------------------------------------------------------|
D--9--7--5--5----------------------------------------------------------|
A--7--5--3--5----------------------------------------------------------|
E----------------------------------------------------------------------|

e---12-14-15-19-17-15-17p19p17p15-17p19p15-17p19p17p15-17p19p17p15-19~-|
B----------------------------------------------------------------------|
G----------------------------------------------------------------------|
D----------------------------------------------------------------------|
A----------------------------------------------------------------------|
E----------------------------------------------------------------------|


e---7-7-7-5-3-5-7-5-3-5-7-5-3-5-7-5-3-5-7-5-3-5-12-14-15-14-15-17-15-14-|
B-----------------------------------------------------------------------|
G-----------------------------------------------------------------------|
D-----------------------------------------------------------------------|
A-----------------------------------------------------------------------|
E-----------------------------------------------------------------------|


guitar 1

(for intro)

e---12~~~~~~~~---12--15-14-14-12-----12-7-0~~-----------------0-2-3~~~--|
B-----------------------------------------------------------------------|
G-----------------------------------------------------------------------|
D-----------------------------------------------------------------------|
A-----------------------------------------------------------------------|
E------------------------------------------------0---2-3-5-0------------|

e-----------------0-2-3~~~---------------0/12---|
B-----------------------------------------------|
G-----------------------------------------------|
D-----------------------------------------------|
A-----------------------------------------------|
E---5--2-2-3-0---------------5--2-2-3-0---------|

e-----------------------|
B-----------------------|
G--9-9-9-9-9-9-9-9-9-9--|
D--9-9-9-9-9-9-9-9-9-9--| X4
A--7-7-7-7-7-7-7-7-7-7--|
E-----------------------|

e--0-12-12-12-12-14-12-14-15-17-17-17-17-17-15-14-10-12-14-15-14-15-17-15--|
B--------------------------------------------------------------------------|
G--------------------------------------------------------------------------|
D--------------------------------------------------------------------------|
A--------------------------------------------------------------------------|
E--------------------------------------------------------------------------|

e-14-19~~~-19/0-------|
B---------------------|
G---------------------|
D---------------------|
A---------------------|
E---------------------|

Refrain
e--7-7-7-5-3-5---------------12----12-12---12------|
B-------------------------------12-------12--------|
G--------------------------------------------------|
D--------------------------------------------------|
A--------------------------------------------------|
E--------------------------------------------------|

e--12-10-8------------------12----|
B----------12-10-8--7-8-7-5-------|
G---------------------------------|
D---------------------------------|
A---------------------------------|
E---------------------------------|

solo # 1 (very fast)

e--12p7p0-12p7p0-12p7p0-12p7p0-12p7p0-12p7p0-12p7p0-12p7p0-|
B----------------------------------------------------------|
G----------------------------------------------------------|
D----------------------------------------------------------|
A----------------------------------------------------------|
E----------------------------------------------------------|

e--10p7p0-10p7p0-10p7p0-10p7p0-10p7p0-10p7p0-10p7p0-10p7p0-|
B----------------------------------------------------------|
G----------------------------------------------------------|
D----------------------------------------------------------|
A----------------------------------------------------------|
E----------------------------------------------------------|

e--12p7p0-12p7p0-12p7p0-12p7p0-12p7p0-12p7p0-12p7p0-12p7p0-|
B----------------------------------------------------------|
G----------------------------------------------------------|
D----------------------------------------------------------|
A----------------------------------------------------------|
E----------------------------------------------------------|


e--12p7p0-12p7p0-14p7p0-14p7p0-15p7p0-15p7p0-|
B--------------------------------------------|
G--------------------------------------------|
D--------------------------------------------|
A--------------------------------------------|
E--------------------------------------------|

e--12p7p0-12p7p0-12p7p0-12p7p0-14p7p0-14p7p0-15p7p0-15p7p0-12p7p0-12p7p0-|
B------------------------------------------------------------------------|
G------------------------------------------------------------------------|
D------------------------------------------------------------------------|
A------------------------------------------------------------------------|
E------------------------------------------------------------------------|

e-12p7p0-12p7p0-14p7p0-14p7p0-15p7p0-15p7p0-16p7p0-16p7p0-|
B---------------------------------------------------------|
G---------------------------------------------------------|
D---------------------------------------------------------|
A---------------------------------------------------------|
E---------------------------------------------------------|

e-12p7p0-12p7p0-14p7p0-14p7p0-15p7p0-15p7p0-16p7p0-16p7p0-|
B---------------------------------------------------------|
G---------------------------------------------------------|
D---------------------------------------------------------|
A---------------------------------------------------------|
E---------------------------------------------------------|

e-19p7p0-19p7p0-19p7p0-19p7p0-19p7p0-19p7p0-19p7p0-19p7p0-19/0-|
B--------------------------------------------------------------|
G--------------------------------------------------------------|
D--------------------------------------------------------------|
A--------------------------------------------------------------|
E--------------------------------------------------------------|


solo # 2


e--12p7p0-12p7p0-12p7p0-12p7p0-12p7p0-12p7p0-12p7p0-12p7p0-|
B----------------------------------------------------------|
G----------------------------------------------------------|
D----------------------------------------------------------|
A----------------------------------------------------------|
E----------------------------------------------------------|

e--10p7p0-10p7p0-10p7p0-10p7p0-10p7p0-10p7p0-10p7p0-10p7p0-|
B----------------------------------------------------------|
G----------------------------------------------------------|
D----------------------------------------------------------|
A----------------------------------------------------------|
E----------------------------------------------------------|

e--12p7p0-12p7p0-12p7p0-12p7p0-12p7p0-12p7p0-12p7p0-12p7p0-|
B----------------------------------------------------------|
G----------------------------------------------------------|
D----------------------------------------------------------|
A----------------------------------------------------------|
E----------------------------------------------------------|

e--12p7p0-12p7p0-10p7p0-10p7p0-8p5p0-8p5p0-7p3p0-7p3p0-|
B------------------------------------------------------|
G------------------------------------------------------|
D------------------------------------------------------|
A------------------------------------------------------|
E------------------------------------------------------|

e--12p7p0-12p7p0-10p7p0-10p7p0-8p5p0-8p5p0-7p3p0-7p3p0-|
B------------------------------------------------------|
G------------------------------------------------------|
D------------------------------------------------------|
A------------------------------------------------------|
E------------------------------------------------------|

e-3p2p0-3p2p0-5p3p2-5p3p2-5p3p2-5p3p2-7p3p0-7p3p0-5p3p2-5p3p2-|
B-------------------------------------------------------------|
G-------------------------------------------------------------|
D-------------------------------------------------------------|
A-------------------------------------------------------------|
E-------------------------------------------------------------|

e-3p2p0-3p2p0-5p3p2-5p3p2-5p3p2-5p3p2-12p7p0-12p7p0-10p7p0-10p7p0-|
B-----------------------------------------------------------------|
G-----------------------------------------------------------------|
D-----------------------------------------------------------------|
A-----------------------------------------------------------------|
E-----------------------------------------------------------------|


e--12p7p0-12p7p0-10p7p0-10p7p0-8p5p0-8p5p0-7p3p0-7p3p0-|
B------------------------------------------------------|
G------------------------------------------------------|
D------------------------------------------------------|
A------------------------------------------------------|
E------------------------------------------------------|

e--12p7p0-12p7p0-10p7p0-10p7p0-8p5p0-8p5p0-7p3p0-7p3p0-|
B------------------------------------------------------|
G------------------------------------------------------|
D------------------------------------------------------|
A------------------------------------------------------|
E------------------------------------------------------|

e-0-3p0-12-12-12-10-8-7-8-7-5-7-5--3p2p0-3p2p0-5p3p2p-5p3p2-|
B-----------------------------------------------------------|
G-----------------------------------------------------------|
D-----------------------------------------------------------|
A-----------------------------------------------------------|
E-----------------------------------------------------------|

e-12p7p0-12p7p0-10p7p0-10p7p0--|
B------------------------------|
G------------------------------|
D------------------------------|
A------------------------------|
E------------------------------|

play the refrain two more times. then do solo # 3

solo # 3

(play these notes realy fast.)
e--0--2--3--5--7--12--7--5--3--0--2--3--2-----0--2--3--5--7--12----|
B------------------------------------------------------------------|
G------------------------------------------------------------------|
D------------------------------------------------------------------|
A------------------------------------------------------------------|
E------------------------------------------------------------------|

e--14--12--14--15--14--15--17--15--17--19--17--15--17--15--14--15--17-|
B---------------------------------------------------------------------|
G---------------------------------------------------------------------|
D---------------------------------------------------------------------|
A---------------------------------------------------------------------|
E---------------------------------------------------------------------|

e--15--14--12~~/0--|
B------------------|
G------------------|
D------------------|
A------------------|
E------------------|

e---------------10~~~-8~~~-10~~~--12-15-19-17-15-17-15-14-15-14-15-12--|
B----------------------------------------------------------------------|
G--9--7--5--7----------------------------------------------------------|
D--9--7--5--5----------------------------------------------------------|
A--7--5--3--5----------------------------------------------------------|
E----------------------------------------------------------------------|

e---12-14-15-14-15-17-15-14-19p15p12-19p15p12-19p15p12-19p15p12-|
B---------------------------------------------------------------|
G---------------------------------------------------------------|
D---------------------------------------------------------------|
A---------------------------------------------------------------|
E---------------------------------------------------------------|

(refrain)

e-7-7-7-5-3-5-7-5-3-5-7-5-3-5-7-5-3-5-7-5-3-5-12-14-15-14-15-17-15-14-19-|
B------------------------------------------------------------------------|
G------------------------------------------------------------------------|
D------------------------------------------------------------------------|
A------------------------------------------------------------------------|
E------------------------------------------------------------------------|

e-19p15p12-19p15p12-19p15p12-19p15p12-17p15p12-17p15p12-17p14p12-17p14p12-|
B-------------------------------------------------------------------------|
G-------------------------------------------------------------------------|
D-------------------------------------------------------------------------|
A-------------------------------------------------------------------------|
E-------------------------------------------------------------------------|

refrain

e-7-5-3-5-7-5-3-5-7-5-3-5-7-5-3-5-12-14-15-14-15-17-15-14-15-14-12-10-12-14-|
B---------------------------------------------------------------------------|
G---------------------------------------------------------------------------|
D---------------------------------------------------------------------------|
A---------------------------------------------------------------------------|
E---------------------------------------------------------------------------|

e-15-14-15-17-15-14-15-14-12-10-12-14-15-14-15-17-19~~~----|
B----------------------------------------------------------|
G----------------------------------------------------------|
D----------------------------------------------------------|
A----------------------------------------------------------|
E----------------------------------------------------------|
Tap to rate this tab
 
# A B C D E F G H I J K L M N O P Q R S T U V W X Y Z