Song name
# A B C D E F G H I J K L M N O P Q R S T U V W X Y Z

Misc Unsigned Bands - Andre Hehanussa - Karna Kutahu Engkau Begitu tab

Andre Hehanussa - Karna Kutahu Engkau Begitu
tabbed by bayuwindra
bajoe_indra@yahoo.com


Basic Chords

    G   D/F#  Em7   C    C   Bm7  Bm7/C   Am7  D7sus4
e|--3----x----3-----0----3----2----2-------0-----3---------|
b|--3----3----3-----1----5----3----3-------1-----1---------|
g|--0----2----x-----0----5----2----2-------0-----2---------|
d|--x----x----2-----2----5----2----2-------2-----0---------|
a|--2----x----2-----3----3----2----3-------0---------------|
e|--3----2----0--------------------------------------------|


Intro

    G         D/F#  Em7              C      Bm7      A       D7sus4
e|-------------------------------------3--------3-------3--------3-----------|
b|------0h1------3--3--3---0h1-------5---5--3-----3--2----2--1-----1---------|
g|----------0--2----0--0------0h2-------------2--------2-------2-------------|
d|----0----------------------------------------------------- 0---------------|
a|-----------------------------------3---------------0-----------------------|
e|--3----------2----0--0--0-----------------2--------------------------------|


    G          D/F#    Em7              C      Bm7      A        D7sus4      (short bridge)
e|------------------------------------------3--------3-------3--------3------|-------------|
b|---------0h1------3h5--3--3---0h1-------5---5--3-----3--2----2--1-----1----|----3--------|
g|-------------0--2------0--0------0h2-------------2--------2-------2--------|------0------|
d|-------0------------------------------------------------------- 0----------|-2s4----4----|
a|----------------------------------------3---------------0------------------|-------------|
e|-0h2h3----------2------0--0--0-----------------2---------------------------|-------------|


Verse
play the same as intro, with some minor improvisation on the chord C-Bm7-A-Dsus4.
hear the song and u'll get it. :)


Reff

Bila saat nanti.....
     C       Bm7/C Bm7 Em7    Am7     C     Bm7/C  Bm7    Em7
e|---------0----2---2---3-----------------0----2-----5--2--3-----------------|
b|--------------3---3---3--0--1s3s1------------3---3-------3--0--1s3s1-------|
g|-------0------2---2-------------------0------2---2-------------------------|
d|-------------------------0--2s4s2---------------------------0--2s4s2-------|
a|-0h2h3------3---2-------------------3------3-----2-------------------------|
e|----------------------0----------------------------------0-----------------|

Takkan terbagi....
   C      Bm7/C Bm7 Em7         Am7   Bm7    C      D
e|-----0----2---2---3------------0-----2-----0------3p2--0-------------------|
b|----------3---3---3------0-----1-----4-----1------3-------3-------3--------|
g|---0------2---2--------2-------0-----2-----0---------------------- -0------|
d|-------------------------------2-----2-----2------0----------2s4------4----|
a|-3------3---2------------------0-----2-----3-------------------------------|
e|------------------0--------------------------------------------------------|


..
..
..
..


Last Reff (2nd part)
changes on the chord Bm7, see below


    Am7   Bm7    C      D                           G         D/F#  Em7
e|---0-----2-----0------3p2--0-------------------|---------------------------|
b|---1-----4-----1------3-------3-------3--------|------0h1------3--3--3-----|
g|---0-----2-----0------------------------0------|----------0--2----0--0-----|
d|---2-----2-----2------0----------2s4------4----|----0----------------------|
a|---0-----2-----3-------------------------------|---------------------------|
e|-----------------------------------------------|--3----------2----0--0-----|


    Am7   Bm7    C      D                           G         D/F#  Em7
e|---0-----3-----0------3p2--0-------------------|---------------------------|
b|---1-----4-----1------3-------3-------3--------|------0h1------3--3--3-----|
g|---0-----2-----0------------------------0------|----------0--2----0--0-----|
d|---2-----2-----2------0----------2s4------4----|----0----------------------|
a|---0-----2-----3-------------------------------|---------------------------|
e|-----------------------------------------------|--3----------2----0--0-----|


    Am7   Bm7    C         D
e|---0-----5-----0-------------------------------|
b|---1-----4-----1---------3-----3-----3---------|
g|---0-----2-----0-----------0-----0-------------|
d|---2-----2-----2-------------4-----4-----------|
a|---0-----2-----3-------------------------------|
e|-----------------------------------------------|


Ended with Intro
Tap to rate this tab
 
# A B C D E F G H I J K L M N O P Q R S T U V W X Y Z