Song name
# A B C D E F G H I J K L M N O P Q R S T U V W X Y Z

Misc Unsigned Bands - Party Foul - The Final Breath tab

--------------------------------------------------------------------------
			     The Final Breath - The Party Foul!
--------------------------------------------------------------------------
Tabbed by:Aaron Lietz 
Email:lonespartan@sbcglobal.net
Myspace: Myspace.com/thepartyfoulband
Facebook: http://www.facebook.com/THEPARTYFOULBAND
LastFM: http://www.last.fm/music/The+Party+Foul!
Tuning:Drop-C#

This is only for one guitar. Figure out strumming patterns:)

Guitar 1 - Rhythm


Repeat 

[0:00-0:50]
D#|-------------------------------------------------------------|
A#|-------------------------------------------------------------|
F#|-------------------------------------------------------------|
C#|-------------------------------------------10----8----7h8----|
G#|-----7---8-----10----8----7h8-----7---8----------------------|
C#|--00---0----00----00---00------00---0---00----00---00--------|
                                 

D#|-------------------------------------------------------------|
A#|-------------------------------------------------------------|
F#|-------------------------------------------------------------|
C#|---------------------------------------------7---------------|
G#|-----8---10----12----10----8h10----5---8-----------8------7h8|
C#|--88---8----88----88----88------55---5---55----55-----55-----|

[0:50-1:38]

D#|-------------------------------------------------------------|
A#|-------------------------------------------------------------|
F#|-------------------------------------------------------------|
C#|--8-8-8--10-10-10--------------------------------------------|
G#|--8-8-8--10-10-10--------------------------------------------|
C#|--8-8-8--10-10-10--0-000000-00-000000-0-0-0-0-000000-000000--|

[1:38-1:52]

D#|-----------------------------|
A#|-----------------------------|
F#|-------------7+--------------|
C#|------------------------0----|
G#|--3*--------------------0----|
C#|------00--00----00--00--1----|

[1:53-2:07]

D#|-----------------------------------|
A#|-----------------------------------|
F#|-----------------------------------|
C#|------------------4-3-1-3-1-3-0----|
G#|------------------4-3-1-3-1-3-0-3*-|
C#|--000-000-000-000-4-3-1-3-1-3-0----|

D#|-----------------------------------|
A#|-----------------------------------|
F#|-----------------------------------|
C#|---------------------3---3---3---3-|
G#|-------------------7---7---7---5---|
C#|--000-000-000-000------------------|

[2:09-2:30]

D#|--------------------|
A#|--------------------|
F#|--14-10-12/14\12----|
C#|--x--x--x-/x-\x-----|
G#|--12-8--10/12\10----|
C#|--------------------|

[2:30-2:32]

D#|----------|
A#|----------|
F#|---10-9---|
C#|---x--x---|
G#|---8--7---|
C#|----------|

[2:33-2:56]

D#|---------------------|
A#|---------------------|
F#|---------------------|
C#|-000-888-333-555-----|
G#|-000-888-333-333-----|
C#|-000-888-333---------|

D#|---------------------|
A#|---------------------|
F#|---------------------|
C#|-000-888-333-555-666-|
G#|-000-888-333-333-444-|
C#|-000-888-333---------|

[2:56-End]

D#|---------------------|
A#|---------------------|
F#|---------------------|
C#|---------------------|
G#|---------------------|
C#|-0-00000-00-00000----|


| /  slide up
| \  slide down
| h  hammer-on
| p  pull-off
| ~  vibrato
| +  harmonic
| *  articial harmonic
======================================================================
Tap to rate this tab
 
# A B C D E F G H I J K L M N O P Q R S T U V W X Y Z