Song name
# A B C D E F G H I J K L M N O P Q R S T U V W X Y Z

Misc Unsigned Bands - Velvet Cacoon - Avalon Polo tab

----------------------------------------------------------------------------
			                     AVALON POLO - VELVET CACOON
----------------------------------------------------------------------------

Tabbed by: Guitardude25
Email: guitardude125@yahoo.com

Tuning: Drop C

                                                                 Riff A - 8x
D|------------------------------------------------------------|
A|------------------------------------------------------------|
F|------------------------------------------------------------|
C|4-4-4-4-4-4-4-4-7-7-7-7-7-7-7-7-----------------------------|
G|5-5-5-5-5-5-5-5-4-4-4-4-4-4-4-4-----------------------------|
C|0-0-0-0-0-0-0-0-0-0-0-0-0-0-0-0-----------------------------|

                                                              Riff B - 4x
D|--------------------------------------------------------------|
A|--------------------------------------------------------------|
F|--------------------------------------------------------------|
C|-8--8--8-11-11--12-12-12--11-11-------------------------------|
G|-9--9----9--9---9--9------12-12-------------------------------|
C|--------------------------11----------------------------------|

              Riff C - 1x                                          Riff D - 10x
D|------------------------------|---------------------------------|
A|------------------------------|---------------------------------|
F|-9-------6-----------6--------|---6---6---6---6-----------------|
C|-0------0-0---------0-0-------|--0-0-0-0-0-0-0-0----------------|
G|-9----9------8----9------8----|-9---9---9---9-------8-----------|
C|------------------------------|---------------------------------|

      (Acoustic) Riff E - 2x                                 (Acoustic) Riff F - 4x
D|--------------------------|----------------------------------------|
A|--------------------------|----------------------------------------|
F|---6--6--6--6--6--6--6--6-|-6-6-6-6-6-6-6-6-6-6-6-6----------------|
C|--4--4--4--4--4--4--4--4--|-4-4-4-4-4-4-4-4-4-4-4-4----------------|
G|-6--6--6--6--5--5--5--5---|-6-6-6-6-6-6-5-5-5-5-5-5----------------|
C|--------------------------|----------------------------------------|

Order of Song:
Riff A - 8x
Riff B - 4x
Riff A -4x
Riff B - 4x
Riff C - 1x
Riff D - 10x
Riff E - 2x
Riff F - 4x

Tap to rate this tab
 
# A B C D E F G H I J K L M N O P Q R S T U V W X Y Z