Song name
# A B C D E F G H I J K L M N O P Q R S T U V W X Y Z

Misc Unsigned Bands - Multiplicity - Anthem For A Doomed Youth tab

Tuning:Drop C

To get an idea of the song, watch it on either the facebook or the youtube channel

Intro / Chorus - Repeat until "Tomorrow, we give up or DIE!"
D|-------------------------------------------------------------------------------|
A|-------------------------------------------------------------------------------|
F|-------------------------------------------------------------------------------|
C|-------4--5-4-5-4-5-4-------4-5-7-5-4--2h4p2p0---------------------------------|
G|-------------------------------------------------------------------------------|
C|--2-2----2-2-2-2-2-2----0-0--0-0-0-0-------------------------------------------|

Pre-Verse - Repeat Twice

D|----------------------------------------------------------------------------------|
A|----------------------------------------------------------------------------------|
F|----------------------------------------------------------------------------------|
C|--2--2--2-2-2--2--2------------0--0--0-0-0--0--0----------------------------------|
G|--2--2--2-2-2--2--2------------0--0--0-0-0--0--0----------------------------------|
C|--2--2--2-2-2--2--2---2h4h2p0--0--0--0-0-0--0--0-2p0-2p0--------------------------|

Verse - basically palm muted 2's and 0's with the little hammer on and pull of riff from 
the pre-verse in between the 2's and 0's

Breakdown - Again the 2's and 0's but without the little riff..Play in a break down kind of rhythm
Tap to rate this tab
 
# A B C D E F G H I J K L M N O P Q R S T U V W X Y Z