Song name
# A B C D E F G H I J K L M N O P Q R S T U V W X Y Z

Misc Unsigned Bands - Yan - Care Of You tab

Title: care of you
Artist: Yannick Herinckx
Words: Yannick Herinckx
Music: Yannick Herinckx
Tempo = 120
Steel Guitar

Legend
L - tied note
x - dead note
h - hammer on/pull off
b - bend
s - slide
~ - vibrato
g - ghost note
> - accentuated note
t - trill
M - palm mute
. - staccato
P - popping (bass)
S - slapping (bass)
+ - tapping
W - wide vibrato
< - fade in
w - whammy bar
= - tremolo picking
v - brush up
^ - brush down
V - pick stroke up
n - pick stroke down

     ^                            ^                          
E |--3-------------------------|--2-------------------------|
B |--3--------3--------3-------|--3--------3--------3-------|
G |--0-------------------------|--2-------------------------|
D |--0-----0--------0-----0----|--0-----0--------0-----0----|
A |--2-------------------------|----------------------------|
E |--3-------------------------|----------------------------|

  ^                            ^                          
--0-------------------------|--0-------------------------|
--1--------1--------1-------|--1--------1--------1-------|
--2-------------------------|--0-------------------------|
--2-----2--------2-----2----|--2-----2--------2-----2----|
--0-------------------------|--3-------------------------|
----------------------------|----------------------------|

  ^                            ^                          
--3-------------------------|--2-------------------------|
--3--------3--------3-------|--3--------3--------3-------|
--0-------------------------|--2-------------------------|
--0-----0--------0-----0----|--0-----0--------0-----0----|
--2-------------------------|----------------------------|
--3-------------------------|----------------------------|

  ^                            ^                          
--0-------------------------|--0-------------------------|
--1--------1--------1-------|--1--------1--------1-------|
--2-------------------------|--0-------------------------|
--2-----2--------2-----2----|--2-----2--------2-----2----|
--0-------------------------|--3-------------------------|
----------------------------|----------------------------|

  ^                            ^                          
--3-------------------------|--2-------------------------|
--3--------3--------3-------|--3--------3--------3-------|
--0-------------------------|--2-------------------------|
--0-----0--------0-----0----|--0-----0--------0-----0----|
--2-------------------------|----------------------------|
--3-------------------------|----------------------------|

  ^                            ^                          
--0-------------------------|--0-------------------------|
--1--------1--------1-------|--1--------1--------1-------|
--2-------------------------|--0-------------------------|
--2-----2--------2-----2----|--2-----2--------2-----2----|
--0-------------------------|--3-------------------------|
----------------------------|----------------------------|

  ^                            ^                          
--3-------------------------|--2-------------------------|
--3--------3--------3-------|--3--------3--------3-------|
--0-------------------------|--2-------------------------|
--0-----0--------0-----0----|--0-----0--------0-----0----|
--2-------------------------|----------------------------|
--3-------------------------|----------------------------|

  ^                            ^                          
--0-------------------------|--0-------------------------|
--1--------1--------1-------|--1--------1--------1-------|
--2-------------------------|--0-------------------------|
--2-----2--------2-----2----|--2-----2--------2-----2----|
--0-------------------------|--3-------------------------|
----------------------------|----------------------------|

  ^                            ^                          
--3-------------------------|--2-------------------------|
--3--------3--------3-------|--3--------3--------3-------|
--0-------------------------|--2-------------------------|
--0-----0--------0-----0----|--0-----0--------0-----0----|
--2-------------------------|----------------------------|
--3-------------------------|----------------------------|

  ^                            ^                          
--0-------------------------|--0-------------------------|
--1--------1--------1-------|--1--------1--------1-------|
--2-------------------------|--0-------------------------|
--2-----2--------2-----2----|--2-----2--------2-----2----|
--0-------------------------|--3-------------------------|
----------------------------|----------------------------|

  ^                            ^                          
--3-------------------------|--2-------------------------|
--3--------3--------3-------|--3--------3--------3-------|
--0-------------------------|--2-------------------------|
--0-----0--------0-----0----|--0-----0--------0-----0----|
--2-------------------------|----------------------------|
--3-------------------------|----------------------------|

  ^                            ^                          
--0-------------------------|--0-------------------------|
--1--------1--------1-------|--1--------1--------1-------|
--2-------------------------|--0-------------------------|
--2-----2--------2-----2----|--2-----2--------2-----2----|
--0-------------------------|--3-------------------------|
----------------------------|----------------------------|

  ^                            ^                          
--3-------------------------|--2-------------------------|
--3--------3--------3-------|--3--------3--------3-------|
--0-------------------------|--2-------------------------|
--0-----0--------0-----0----|--0-----0--------0-----0----|
--2-------------------------|----------------------------|
--3-------------------------|----------------------------|

  ^                            ^                          
--0-------------------------|--0-------------------------|
--1--------1--------1-------|--1--------1--------1-------|
--2-------------------------|--0-------------------------|
--2-----2--------2-----2----|--2-----2--------2-----2----|
--0-------------------------|--3-------------------------|
----------------------------|----------------------------|

  ^                            ^                          
--3-------------------------|--2-------------------------|
--3--------3--------3-------|--3--------3--------3-------|
--0-------------------------|--2-------------------------|
--0-----0--------0-----0----|--0-----0--------0-----0----|
--2-------------------------|----------------------------|
--3-------------------------|----------------------------|

  ^                            ^                          
--0-------------------------|--0-------------------------|
--1--------1--------1-------|--1--------1--------1-------|
--2-------------------------|--0-------------------------|
--2-----2--------2-----2----|--2-----2--------2-----2----|
--0-------------------------|--3-------------------------|
----------------------------|----------------------------|

  ^                            ^                          
--3-------------------------|--2-------------------------|
--3--------3--------3-------|--3--------3--------3-------|
--0-------------------------|--2-------------------------|
--0-----0--------0-----0----|--0-----0--------0-----0----|
--2-------------------------|----------------------------|
--3-------------------------|----------------------------|

  ^                            ^                          
--0-------------------------|--0-------------------------|
--1--------1--------1-------|--1--------1--------1-------|
--2-------------------------|--0-------------------------|
--2-----2--------2-----2----|--2-----2--------2-----2----|
--0-------------------------|--3-------------------------|
----------------------------|----------------------------|

  ^                            ^                          
--3-------------------------|--2-------------------------|
--3--------3--------3-------|--3--------3--------3-------|
--0-------------------------|--2-------------------------|
--0-----0--------0-----0----|--0-----0--------0-----0----|
--2-------------------------|----------------------------|
--3-------------------------|----------------------------|

  ^                            ^                          
--0-------------------------|--0-------------------------|
--1--------1--------1-------|--1--------1--------1-------|
--2-------------------------|--0-------------------------|
--2-----2--------2-----2----|--2-----2--------2-----2----|
--0-------------------------|--3-------------------------|
----------------------------|----------------------------|

  ^     ^  v     v  ^  v       ^     ^  v     v  ^  v     
--3-----3--3-----3--3--3----|--2-----2--2-----2--2--2----|
--3-----3--3-----3--3--3----|--3-----3--3-----3--3--3----|
--0-----0-----------0-------|--2-----2-----------2-------|
--0-----0-----------0-------|--0-----0-----------0-------|
--2-------------------------|----------------------------|
--3-------------------------|----------------------------|

  ^     ^  v     v  ^  v       ^     ^  v     v  ^  v     
--0-----0--0-----0--0--0----|--0-----0--0-----0--0--0----|
--1-----1--1-----1--1--1----|--1-----1--1-----1--1--1----|
--2-----2-----------2-------|--0-----0-----------0-------|
--2-----2-----------2-------|--2-----2-----------2-------|
--0-------------------------|--3-------------------------|
----------------------------|----------------------------|

  ^     ^  v     v  ^  v       ^     ^  v     v  ^  v     
--3-----3--3-----3--3--3----|--2-----2--2-----2--2--2----|
--3-----3--3-----3--3--3----|--3-----3--3-----3--3--3----|
--0-----0-----------0-------|--2-----2-----------2-------|
--0-----0-----------0-------|--0-----0-----------0-------|
--2-------------------------|----------------------------|
--3-------------------------|----------------------------|

  ^     ^  v     v  ^  v       ^     ^  v     v  ^  v     
--0-----0--0-----0--0--0----|--0-----0--0-----0--0--0----|
--1-----1--1-----1--1--1----|--1-----1--1-----1--1--1----|
--2-----2-----------2-------|--0-----0-----------0-------|
--2-----2-----------2-------|--2-----2-----------2-------|
--0-------------------------|--3-------------------------|
----------------------------|----------------------------|

  ^     ^  v     v  ^  v       ^     ^  v     v  ^  v     
--3-----3--3-----3--3--3----|--2-----2--2-----2--2--2----|
--3-----3--3-----3--3--3----|--3-----3--3-----3--3--3----|
--0-----0-----------0-------|--2-----2-----------2-------|
--0-----0-----------0-------|--0-----0-----------0-------|
--2-------------------------|----------------------------|
--3-------------------------|----------------------------|

  ^     ^  v     v  ^  v       ^     ^  v     v  ^  v     
--0-----0--0-----0--0--0----|--0-----0--0-----0--0--0----|
--1-----1--1-----1--1--1----|--1-----1--1-----1--1--1----|
--2-----2-----------2-------|--0-----0-----------0-------|
--2-----2-----------2-------|--2-----2-----------2-------|
--0-------------------------|--3-------------------------|
----------------------------|----------------------------|

  ^     ^  v     v  ^  v       ^     ^  v     v  ^  v     
--3-----3--3-----3--3--3----|--2-----2--2-----2--2--2----|
--3-----3--3-----3--3--3----|--3-----3--3-----3--3--3----|
--0-----0-----------0-------|--2-----2-----------2-------|
--0-----0-----------0-------|--0-----0-----------0-------|
--2-------------------------|----------------------------|
--3-------------------------|----------------------------|

  ^     ^  v     v  ^  v       ^     ^  v     v  ^  v          
--0-----0--0-----0--0--0----|--0-----0--0-----0--0--0----|----|
--1-----1--1-----1--1--1----|--1-----1--1-----1--1--1----|----|
--2-----2-----------2-------|--0-----0-----------0-------|----|
--2-----2-----------2-------|--2-----2-----------2-------|----|
--0-------------------------|--3-------------------------|----|
----------------------------|----------------------------|----|

  ^                            ^                          
--3-------------------------|--2-------------------------|
--3--------3--------3-------|--3--------3--------3-------|
--0-------------------------|--2-------------------------|
--0-----0--------0-----0----|--0-----0--------0-----0----|
--2-------------------------|----------------------------|
--3-------------------------|----------------------------|

  ^                            ^                          
--0-------------------------|--0-------------------------|
--1--------1--------1-------|--1--------1--------1-------|
--2-------------------------|--0-------------------------|
--2-----2--------2-----2----|--2-----2--------2-----2----|
--0-------------------------|--3-------------------------|
----------------------------|----------------------------|

  ^                            ^                          
--3-------------------------|--2-------------------------|
--3--------3--------3-------|--3--------3--------3-------|
--0-------------------------|--2-------------------------|
--0-----0--------0-----0----|--0-----0--------0-----0----|
--2-------------------------|----------------------------|
--3-------------------------|----------------------------|

  ^                            ^                          
--0-------------------------|--0-------------------------|
--1--------1--------1-------|--1--------1--------1-------|
--2-------------------------|--0-------------------------|
--2-----2--------2-----2----|--2-----2--------2-----2----|
--0-------------------------|--3-------------------------|
----------------------------|----------------------------|

  ^                            ^                          
--3-------------------------|--2-------------------------|
--3--------3--------3-------|--3--------3--------3-------|
--0-------------------------|--2-------------------------|
--0-----0--------0-----0----|--0-----0--------0-----0----|
--2-------------------------|----------------------------|
--3-------------------------|----------------------------|

  ^                            ^                          
--0-------------------------|--0-------------------------|
--1--------1--------1-------|--1--------1--------1-------|
--2-------------------------|--0-------------------------|
--2-----2--------2-----2----|--2-----2--------2-----2----|
--0-------------------------|--3-------------------------|
----------------------------|----------------------------|

  ^                            ^                          
--3-------------------------|--2-------------------------|
--3--------3--------3-------|--3--------3--------3-------|
--0-------------------------|--2-------------------------|
--0-----0--------0-----0----|--0-----0--------0-----0----|
--2-------------------------|----------------------------|
--3-------------------------|----------------------------|

  ^                            ^                          
--0-------------------------|--0-------------------------|
--1--------1--------1-------|--1--------1--------1-------|
--2-------------------------|--0-------------------------|
--2-----2--------2-----2----|--2-----2--------2-----2----|
--0-------------------------|--3-------------------------|
----------------------------|----------------------------|

  ^     ^  v     v  ^  v       ^     ^  v     v  ^  v     
--3-----3--3-----3--3--3----|--2-----2--2-----2--2--2----|
--3-----3--3-----3--3--3----|--3-----3--3-----3--3--3----|
--0-----0-----------0-------|--2-----2-----------2-------|
--0-----0-----------0-------|--0-----0-----------0-------|
--2-------------------------|----------------------------|
--3-------------------------|----------------------------|

  ^     ^  v     v  ^  v       ^     ^  v     v  ^  v     
--0-----0--0-----0--0--0----|--0-----0--0-----0--0--0----|
--1-----1--1-----1--1--1----|--1-----1--1-----1--1--1----|
--2-----2-----------2-------|--0-----0-----------0-------|
--2-----2-----------2-------|--2-----2-----------2-------|
--0-------------------------|--3-------------------------|
----------------------------|----------------------------|

  ^     ^  v     v  ^  v       ^     ^  v     v  ^  v     
--3-----3--3-----3--3--3----|--2-----2--2-----2--2--2----|
--3-----3--3-----3--3--3----|--3-----3--3-----3--3--3----|
--0-----0-----------0-------|--2-----2-----------2-------|
--0-----0-----------0-------|--0-----0-----------0-------|
--2-------------------------|----------------------------|
--3-------------------------|----------------------------|

  ^     ^  v     v  ^  v       ^     ^  v     v  ^  v     
--0-----0--0-----0--0--0----|--0-----0--0-----0--0--0----|
--1-----1--1-----1--1--1----|--1-----1--1-----1--1--1----|
--2-----2-----------2-------|--0-----0-----------0-------|
--2-----2-----------2-------|--2-----2-----------2-------|
--0-------------------------|--3-------------------------|
----------------------------|----------------------------|

  ^     ^  v     v  ^  v       ^     ^  v     v  ^  v     
--3-----3--3-----3--3--3----|--2-----2--2-----2--2--2----|
--3-----3--3-----3--3--3----|--3-----3--3-----3--3--3----|
--0-----0-----------0-------|--2-----2-----------2-------|
--0-----0-----------0-------|--0-----0-----------0-------|
--2-------------------------|----------------------------|
--3-------------------------|----------------------------|

  ^     ^  v     v  ^  v       ^     ^  v     v  ^  v     
--0-----0--0-----0--0--0----|--0-----0--0-----0--0--0----|
--1-----1--1-----1--1--1----|--1-----1--1-----1--1--1----|
--2-----2-----------2-------|--0-----0-----------0-------|
--2-----2-----------2-------|--2-----2-----------2-------|
--0-------------------------|--3-------------------------|
----------------------------|----------------------------|

  ^     ^  v     v  ^  v       ^     ^  v     v  ^  v     
--3-----3--3-----3--3--3----|--2-----2--2-----2--2--2----|
--3-----3--3-----3--3--3----|--3-----3--3-----3--3--3----|
--0-----0-----------0-------|--2-----2-----------2-------|
--0-----0-----------0-------|--0-----0-----------0-------|
--2-------------------------|----------------------------|
--3-------------------------|----------------------------|

  ^     ^  v     v  ^  v       ^     ^  v     v  ^  v       ^          
--0-----0--0-----0--0--0----|--0-----0--0-----0--0--0----|--3----|----|
--1-----1--1-----1--1--1----|--1-----1--1-----1--1--1----|--3----|----|
--2-----2-----------2-------|--0-----0-----------0-------|--0----|----|
--2-----2-----------2-------|--2-----2-----------2-------|--0----|----|
--0-------------------------|--3-------------------------|--2----|----|
----------------------------|----------------------------|--3----|----|

  ^     ^  v     v  ^  v       ^     ^  v     v  ^  v     
--3-----3--3-----3--3--3----|--2-----2--2-----2--2--2----|
--3-----3--3-----3--3--3----|--3-----3--3-----3--3--3----|
--0-----0-----------0-------|--2-----2-----------2-------|
--0-----0-----------0-------|--0-----0-----------0-------|
--2-------------------------|----------------------------|
--3-------------------------|----------------------------|

  ^     ^  v     v  ^  v       ^     ^  v     v  ^  v     
--0-----0--0-----0--0--0----|--0-----0--0-----0--0--0----|
--1-----1--1-----1--1--1----|--1-----1--1-----1--1--1----|
--2-----2-----------2-------|--0-----0-----------0-------|
--2-----2-----------2-------|--2-----2-----------2-------|
--0-------------------------|--3-------------------------|
----------------------------|----------------------------|

  ^     ^  v     v  ^  v       ^     ^  v     v  ^  v     
--3-----3--3-----3--3--3----|--2-----2--2-----2--2--2----|
--3-----3--3-----3--3--3----|--3-----3--3-----3--3--3----|
--0-----0-----------0-------|--2-----2-----------2-------|
--0-----0-----------0-------|--0-----0-----------0-------|
--2-------------------------|----------------------------|
--3-------------------------|----------------------------|

  ^     ^  v     v  ^  v       ^     ^  v     v  ^  v     
--0-----0--0-----0--0--0----|--0-----0--0-----0--0--0----|
--1-----1--1-----1--1--1----|--1-----1--1-----1--1--1----|
--2-----2-----------2-------|--0-----0-----------0-------|
--2-----2-----------2-------|--2-----2-----------2-------|
--0-------------------------|--3-------------------------|
----------------------------|----------------------------|

  ^     ^  v     v  ^  v       ^     ^  v     v  ^  v     
--3-----3--3-----3--3--3----|--2-----2--2-----2--2--2----|
--3-----3--3-----3--3--3----|--3-----3--3-----3--3--3----|
--0-----0-----------0-------|--2-----2-----------2-------|
--0-----0-----------0-------|--0-----0-----------0-------|
--2-------------------------|----------------------------|
--3-------------------------|----------------------------|

  ^     ^  v     v  ^  v       ^     ^  v     v  ^  v     
--0-----0--0-----0--0--0----|--0-----0--0-----0--0--0----|
--1-----1--1-----1--1--1----|--1-----1--1-----1--1--1----|
--2-----2-----------2-------|--0-----0-----------0-------|
--2-----2-----------2-------|--2-----2-----------2-------|
--0-------------------------|--3-------------------------|
----------------------------|----------------------------|

  ^     ^  v     v  ^  v       ^     ^  v     v  ^  v     
--3-----3--3-----3--3--3----|--2-----2--2-----2--2--2----|
--3-----3--3-----3--3--3----|--3-----3--3-----3--3--3----|
--0-----0-----------0-------|--2-----2-----------2-------|
--0-----0-----------0-------|--0-----0-----------0-------|
--2-------------------------|----------------------------|
--3-------------------------|----------------------------|

  ^     ^  v     v  ^  v       ^     ^  v     v  ^  v       ^
--0-----0--0-----0--0--0----|--0-----0--0-----0--0--0----|--3----|----|----|
--1-----1--1-----1--1--1----|--1-----1--1-----1--1--1----|--3----|----|----|
--2-----2-----------2-------|--0-----0-----------0-------|--0----|----|----|
--2-----2-----------2-------|--2-----2-----------2-------|--0----|----|----|
--0-------------------------|--3-------------------------|--2----|----|----|
----------------------------|----------------------------|--3----|----|----|
Tap to rate this tab
 
# A B C D E F G H I J K L M N O P Q R S T U V W X Y Z