Misc Unsigned Bands - Jesse Ruben - Bleecker And 6th tab

tabbed by: shaneburchmusic
listen here: http://lllmusic.blogspot.com/2011/03/jesse-ruben-bleecker-and-6th.html

Capo on 3rd fret

Intro / Verse:

e-----2---2---2---2-------2---3-2-----------------------------------|
b-----3---3---3---3---3---3---2-2-----------------------------------|
g-----2---3-------2-------2-----------------------------------------|
d-----0-----------0-------0-----------------------------------------|
a---------4---2---0-----------2-2-----------------------------------|
E--------------------3----------------------------------------------|

Pre-Chorus: Repeat 2

"Cause she's been so deceived, And she thinks that she needs to be fixed"
e--------------------------------------2------------------------------------|
b-------------3------------------------3----------------------------3-------|
g--------------------------------------2------------------------------------|
d-------------------------------------------------------------------2-------|
a-------------------------------------------------------------------2-------|
E-------------3-------------------------------------------------------------|

Chorus:

"And this city is scary when, No one is there to share it with."
e---------------------------------------------------------------2----------|
b----------3------------------3---------------------------3-----3-----3----|
g----------4----------------------------------------------4-----2----------|
d----------4----------------------------------------------4----------------|
a----------2----------------------------------------------2-----------3----|
E-----------------------------3--------------------------------------------|
Tap to rate this tab
 
# A B C D E F G H I J K L M N O P Q R S T U V W X Y Z