Misc Unsigned Bands - Pepe Guizar - El Mariachi tab

----------------------------0-------------------------|
----------------------------0----------------0--0-0---|
----------------------------0-----------0----0--------|
----------------------------2---------2------2--------|
--2h3---0h2-----0-----------2-------2-----------------|
--------------3-----2h3-----0-----0----------0--------|

--0-0---0-0-------------------------------------------------------|
--0-0---0-0----------------------------0-----1--1-1--0---0--------|
--5-0---5-0-----0----2-----2--2-2-2----0--2--2---------0----2---2-|
--7-2---7-2-------2--1-----1--------------4-------------------4---|
--0-2---0-2----------2-----2--------------------------------------|
--0-0---0-0-------------------------------------------------------|

---------------------------0---------------7-7-7-8---7-7----8--7-7--------|
-------------------------0-------------8---8-8-8-10--8-8-8--10-8-8-8-8-10-|
-0---0-----------------0-------------9-------------------9---------9-9-11-|
---2----4---4--------2-------------9--------------------------------------|
----------6--------2------------------------------------------------------|
-----------------0-------------------------0---------0---------0-------0--|

-7-------------------------------------------------------0--|
-7------7----10-10-10-12--10-10-7--12--10-10-7-7--8------0--|
-8----8------11-11-11-12--11-11-8--12--11-11-8-8--9------0--|
-9--9----------------------------------------------------2--|
-9-------------------------------------------------------2--|
-7-----------0------------0------------0----------0------0--|
from here go back to beginning

-0-2-0-0----0-0-0------------------0-0-0----------------------------|
-1-----0----0-0-0------------------0-0-0----------------------------|
-2-----0----0-0-0--2-0-------------0-0-0----------------------------|
-------2----2-2-2--4-2-4-2----2----2-2-2----------------------------|
-0-----2----2-2-2------6-2----2----2-2-2----------------------------|
-------0----0-0-0--------0----0----0-0-0----------------------------|
repeat this part
3 times
Tap to rate this tab
 
# A B C D E F G H I J K L M N O P Q R S T U V W X Y Z