Misc Unsigned Bands - Theehegemony - Blank Blues tab

The song is in common time (4/4). Each bar will be split up. The chords are included 
into the songs. For the chords, capo the first fret for the chords and strum downwards one 
beat 1 and 3.

   BFlat7           BFlat7        BFlat7      BFlat7
E|---------------|--------------|-----------|---------|
B|---------------|--------------|-----------|---------|
G|--1-3-3--3-----|---1-3-3-3----|---1-3-1---|---------|
D|-3-------------|-3------------|-3-------3-|-1---1-4-|
A|---------------|--------------|-----------|---4-----|
E|---------------|--------------|-----------|---------|

   EFlat7           EFlat7        BFlat7        BFlat7
E|---------------|--------------|-------------|-------------|
B|---------------|--------------|-------------|-------------|
G|-3-1---1-3-----|-3-1---1-3----|-3-1---------|-------3-1---|
D|-----3---------|-----3--------|-----3-2-1---|-----1-----3-|
A|---------------|--------------|-----------4-|-1-4---------|
E|---------------|--------------|-------------|-------------|

   F7              EFlat7        BFlat7       BFlat7
E|---------------|--------------|-----------|---------|
B|---------------|--------------|-----------|---------|
G|---------------|-----1-3-1----|----1----3-|-1---1---|
D|-1---1-3-------|-1-3-------3--|--3----3---|---3---1-|
A|---4-----------|--------------|-2---3-----|---------|
E|---------------|--------------|-----------|---------|
Tap to rate this tab
 
# A B C D E F G H I J K L M N O P Q R S T U V W X Y Z