Misc Unsigned Bands - Without Wings - Defeated tab

Um, so this is just something I wrote, technically it's not finished, but heyyyy :D
I have my guitar in drop C but you can play this in any dropped tuning you feel like as 
long as you're able to get that 'djent' sound on the 6th string.

------------------------------------------------------------|
------------------------------------------------------------|
------------------------------------------------6h9---------|
-----------------------5h8----------------------------------|  1st section
------4h7-3h6------4h7----------4h7-2h6------4h7------------|
-0-2h5--------0-2h5--------0-2h5--------0-2h5---------------| x2

----------------------------------------------|
----------------------------------------------|
----------------------------------------------|
----------------------------------------------|
------4h7------7h10-6h9------4h7-----7h10-6h9-|
-0-2h5---0-5h8----------0-2h5---0-5h8---------|

--------------------------------------------------------------------------|
-------------------------------------------------------------7h10-6h9-----|
-----------------------------------------------------7h10-6h9-------------|
---------------------------------------------7h10-6h9---------------------|
------4h7------7h10-6h9------4h7-----7h10-6h9-----------------------------|
-0-2h5---0-5h8----------0-2h5---0-5h8-------------------------------------|

So, that first section is played really quickly,then this second section is a bit more 
chuggy, but not entirely half-time.The high notes are played quickly.

-----------------------------------------------|
-----------------------------------------------|
---------------------14h17---------------------|
----------------13h16--------------------------|  2nd section
-----------------------------------------------|
-0-00-0--12bp-0------------0-00-0--12s1v-x2----|
 . ..                      . ..
------------------------------------------|
------------------------------------------|
------------------------------------------|
---------------------13h16----------------|
----------------12h15---------------------|
-0-00-0--12bp-0------------0-00-0--12s1v--|
 . ..                      . ..
--------------------------------------------------------------------------|
--------------------------------------------------------------------------|
------------------------------------------14h17-----13h16-----------------|
---------------------13h16-----14h17-13h16-----12h15----------------------|
----------------12h15-----13h16-------------------------------------------|
-0-00-0--12bp-0-------------------------------------------0-00-0-12s1v----|
 . ..                                                     . ..
-------------------------------------------------------|
-------------5p3p0-s12---------------------------------|
--------5p3p0------s15-----14h17-----------------------|
-3-33-3---------------13h16------2-22-2-22-1-11-1-11---| 3rd section
-3-33-3--------------------------2-22-2-22-1-11-1-11---|
-3-33-3--------------------------2-22-2-22-1-11-1-11---|
pm .. .                          . .. . .. . .. . ..


Repeat the second section, then:

-------------------------------------------------------------------3p2p0-|
-------------5p3p0-s12----------------------------------------3p2p0------|
--------5p3p0------s15-----14h17-------------3p2p0-------3p2p0-----------|
-3-33-3---------------13h16------2-22-2-3p2p0------1-11-1----------------|
-3-33-3--------------------------2-22-2------------1-11-1----------------|
-3-33-3--------------------------2-22-2------------1-11-1----------------|
pm .. .                          . .. .            . ..

Breakdown:

-----------------------5h8p6----------|
----------------------7-----8---------|
-------------------5h8-------9p6------|
------------------5-------------6-----|
-00-00-000-00----5---------------6----|
-00-00-000-00-5h8-----------------9p6-|
 .. .. ... ..
-------------------------13h17p13s12------------------|
-----------------------15-----------15----------12h15-|
---------------------14---------------14------11------|
-------------------15-------------------15--12--------|
-00-00-000-00-12h17-----------------------11----------|
-11-11-000-00-----------------------------------------|
 .. .. ... ..
--------------------------------------------|
--------------------------------------------|
--------------------------------------------|
--------------------------------------5h8---|
-00-00-----00-00-------4h7-3h6-----4h7------|
-00-00--0--00-00--0-2h5-------0-2h5---------| pause
 .. ..     .. ..
This bit is clean and slow

------------------6h7p6-9p6-----------0---|
-9--9-9--8-8--9--7-----7---7--9--8----7---|
-8--8-8--6-7--8-8-------------8--6----6---|
-6--6-6--5-5--6---------------6--5----4---|
-7--7-7--7-6--7---------------7--7----5---|
--------------------------------------0---|
      mute

Anyhoo, that's kinda it, it's more of a technical study but it sounds pretty cool, enjoy :)
Tap to rate this tab
 
# A B C D E F G H I J K L M N O P Q R S T U V W X Y Z