Misc Unsigned Bands - Colourmepink - Just So You Know tab

INTRO RIFF              GUITARMONY

|----------------------------------------|
|-----------------------7-5---5-7-5---5--|
|--7-6---6-7-6---6----------6-------6----|
|------7-------7-------------------------|
|----------------------------------------|
|----------------------------------------|



INTRO RIFF 2
|--------------------------------------------------------------|
|--------------------------------------------------------------|
|--7-6---------11-11--9-9/11/9----7-6-----------9-9-9-14-14-14-|
|--7----7-7-7--11-11--9-----------7-----7-7-7------------------|
|--5-4--7-7-7--9--9---7-7/9-/7----5-4---7-7-7---7-7-7-12-12-12-|
|-------5-5-5---------------------------5-5-5------------------|


PRE VERSE
|----------|
|----------|
|--7~------|
|--7~------|
|--5~------|
|----------|


VERSE 1
|---------------------------------------------------------------------|
|---------------------------------------------------------------------|
|---------------------------------------------------------------------|
|---------------------------------------------------------------------| x2
|--7-7-7-7-7-7-7-7-7-7-7-7-7-7-7-7-4-4-4-4-4-4-4-4-2-2-2-2-2-2-2-2-2--|
|--5-5-5-5-5-5-5-5-5-5-5-5-5-5-5-5-2-2-2-2-2-2-2-2-0-0-0-0-0-0-0-0-0--|

VERSE 2
|--------------------------------------|
|--------------------------------------|
|--7-7-7-7-6-6-6-6-11-11-11-11-9-9-9-9-|
|--7-7-7-7-7-7-7-7-11-11-11-11-9-9-9-9-| x2
|--5-5-5-5-7-7-7-7-9--9--9--9--7-7-7-7-|
|----------5-5-5-5---------------------|

PRE CHORUS
|----------|
|----------|
|--7~------|
|--7~------|
|--5~------|
|----------|

CHORUS
|----------------------------------|
|----------------------------------|
|--6-6-6-6-7-7-7-7-----------------|
|--7-7-7-7-7-7-7-7-4-4-4-4-2-2-2-2-| x4
|--7-7-7-7-5-5-5-5-4-4-4-4-2-2-2-2-|
|--5-5-5-5---------2-2-2-2-0-0-0-0-|


INTRO RIFF 2


VERSE 3
|------------------|
|------------------|
|--7/6-6---11-11-9-|
|--7---7---11-11-9-|
|--5/4-7---9--9--7-|
|------5-----------|


VERSE 4
|----------------------------------------------------------------|
|----------------------------------------------------------------|
|--7-7-7-7-7-7-7-7-----------------------------------------------|
|--7-7-7-7-7-7-7-7-7-7-7-7-7-7-7-7-4-4-4-4-4-4-4-2-2-2-2-2-2-2-2-|
|--5-5-5-5-5-5-5-5-7-7-7-7-7-7-7-7-4-4-4-4-4-4-4-2-2-2-2-2-2-2-2-|
|------------------5-5-5-5-5-5-5-5-2-2-2-2-2-2-2-0-0-0-0-0-0-0-0-|

|----------------------------------------------------------------|
|----------------------------------------------------------------|
|--7-7-7-7-7-7-7-7-----------------------------------------------|
|--7-7-7-7-7-7-7-7-7-7-7-7-7-7-7-7-2-2-2-2-2-2-2-2-2-2-2-2-2-2-2-|
|--5-5-5-5-5-5-5-5-7-7-7-7-7-7-7-7-2-2-2-2-2-2-2-2-2-2-2-2-2-2-2-|
|------------------5-5-5-5-5-5-5-5-0-0-0-0-0-0-0-0-0-0-0-0-0-0-0-|


CHORUS


BRIDGE 1
|-------------------------------|
|-------------------------------|
|--7-7-7-7-6-6-6-6-4-4-4-4-4-4--|
|--7-7-7-7-7-7-7-7-2-2-2-2-2-2--| X4
|--5-5-5-5-7-7-7-7-2-2-2-2-2-2--|
|----------5-5-5-5-0-0-0-0-0-0--|


BRIDGE 2
|------------------------------------------------------------------------------------|
|------------------------------------------------------------------------------------|
|------------------------------------------------------------------------------------|
|--7-7-7-7-7-7-7-9-9-9-9-9-9-11-11-11-11-11-11-9-9-9-9-9-9-9-7-7-7-7-7-7-9-9-9-9-9-9-|
|--5-5-5-5-5-5-5-7-7-7-7-7-7-9--9--9--9--9--9--7-7-7-7-7-7-7-5-5-5-5-5-5-7-7-7-7-7-7-|
|------------------------------------------------------------------------------------|

BRIDGE 3
|---------------------------------------|
|---------------------------------------|
|--11-11-11-11-9-9-9-9-7-7-7-7-7-7-7-7--|
|--11-11-11-11-9-9-9-9-7-7-7-7-7-7-7-7--| X2
|--9--9--9--9--7-7-7-7-5-5-5-5-5-5-5-5--|
|---------------------------------------|


CHORUS til end
Tap to rate this tab
 
# A B C D E F G H I J K L M N O P Q R S T U V W X Y Z