Misc Unsigned Bands - Simon Isaac - Begin Again tab

Simon Isaac - Begin Again

Capo 5th fret

To see the full song, visit Simon Isaac's video:
http://www.youtube.com/watch?v=yrAjQgFplIE&feature=feedu



Intro

|-2------2^3---5-2--2------0^2p0^2p0---2------2^3---5-2--2----3p2p0-0^2--|
|------x-----------------3-----------3------x----------------------3---3-|
|-2--2-------2---2--0--0---------------2--2-------2---2--0--0------------|
|------------------------------------------------------------------------|
|------------------------------------------------------------------------|
|------------------------------------------------------------------------|


Verse 1

|-2--3-5-2-2--0^2p0^2p0--|-2--3-5-2-2-|
|----------------------3-|------------|
|-2--2-2-2-0--0----------|-2--2-2-2-0-|
|------------------------|------------|
|------------------------|------------|
|------------------------|x3----------|

|-2--x-3-5-2--2-----|
|----x------------3-|
|-2--x-2-2-2------0-|
|-0--x-0-0-0--0-----|
|----x--------2-----|
|----x------------3-|


Chorus

|---0--0-----x-----0--0-----x-x----0--2--3-|
|---0--0-----3-----0--0-----3/5----8--3--3-|
|---4--4-----0-----4--4-----0-0----9--2--0-|
|---4--4-----0-----4--4-----0-0----9--0--0-|
|-2----------x---2----------x-x--7----0--x-|
|------2---3-3--------2---3-3/5--0-------3-|


Verse 2

|-2--3-5-2--2---3---5-2--3-5-2--2--0-2-0-2-0-x-|
|-3--3-3-3--3---3---3-3--3-3-3--3--3-3-3-3-3-3-|
|-2--2-2-2--4---0---2-2--2-2-2--4--0-0-0-0-0-0-|
|-0--0-0-0--0---0---0-0--0-0-0--0--0-0-0-0-0-0-|
|-0--0-0-0--2---x---0-0--0-0-0--2--x-x-x-x-x-x-|
|---------------3------------------3-3-3-3-3-3-|


Chorus 2

|---0--0-----x--0-0---0--0-----x-x----0--2--3--2--0--2--3--2--0--2--3----2-|
|---0--0-----3-/5/3---0--0-----3/5----8--3--3--3--8--3--3--3--8--3--3----x-|
|---4--4-----0--0-0---4--4-----0-0----9--2--0--2--9--2--0--2--9--2--0----2-|
|---4--4-----0--0-----4--4-----0-0----9--0--0--0--9--0--0--0--9--0--0----0-|
|-2----------x--0---2----------x-x--7----0--x--0--7--0--x--0--7--0--x------|
|------2---3-3-/5--------2---3-3/5--0-------3-----------3-----x-----3------|



For any questions, email me at Asomeone50@gmail.com or you could write a comment
Tap to rate this tab
 
# A B C D E F G H I J K L M N O P Q R S T U V W X Y Z