Song name
# A B C D E F G H I J K L M N O P Q R S T U V W X Y Z

Misc Unsigned Bands - Ayie Berd - Perangkap Cintacinta Tiga Segi tab

Ayie & Berd - Perangkap Cinta
 
Intro: Em D B Em
       Em D B Em D

|--------------------------------------------------------------------------|
|--------8-7h8p7---7-8-8/10--7h8p7p5-----------8-7h8p7---------------------|
|----------------9-------------------7~--7/8-8~-----------9~-7h9-9~--------|
|----7/9--------------------------------------9----------------------------|
|--------------------------------------------------------------------------|
|--------------------------------------------------------------------------|

|---------------------------------------------------------------------------------------------|
|--------8-7h8p7---7-8-8/10--10/12-10~---7-7-8-7-5---5-7-8-8/10-8-7--7h8p7---8p7--------------|
|----------------9---------------------------------8-----------------------9-----9p8----------|
|----7/9-----------------------------------------------------------------------------10-9~----|
|---------------------------------------------------------------------------------------------|
|---------------------------------------------------------------------------------------------|

Em                    D
Bertahun sudah ku menunggu diri mu
B              Em
Akhirnya kau menjadi milikku
Em                D
Sukarnya untuk ku melupakan mu
B              Em
Kerna kau ku cintai selalu

Am              D               Em
Tapi sayang kehadiran kekasih lama mu
C              D                Em
Datang kembali mengenang cinta dahulu

Em                  Am
Mengapa ini semua harus berlaku
D                 G
Apakah ini semua kerna diri ku
C                            B
Sedangkan aku cuma watak dalam percintaan
C           D           Em
Tak sanggup aku melepaskanmu

Am            D                Em
Kau ibarat terperangkap ditengah lautan
C             D               Em
Tak tahu mana arah untuk kau menuju

solo

     Em                     D              B                        Em
|--------------------------------------------------------------------------------------|
|--------8-7h8p7-----7-8-8/10-8-7-7h8-7----------7-7h8-7-7h8-10-10/12--10h12-10~-------|
|----------------9-9---------------------9-8-8h9---------------------------------------|
|----7/9-------------------------------------------------------------------------------|
|--------------------------------------------------------------------------------------|
|--------------------------------------------------------------------------------------|
   Em                            D
|-------------------------------------------------------------------------------------------------|
|--8---8-7-5-7-5--5-7-8--10-8-8h10/12-10-8-7h8-7~--------7h8-10-8-7-7h8-7~--8-7-5-7-5-------------|
|---------------8----------------------------------9-8h9------------------------------8-7h8~------|
|-------------------------------------------------------------------------------------------------|
|-------------------------------------------------------------------------------------------------|
|-------------------------------------------------------------------------------------------------|


|-------------------------------------------------------------------------------------------------|
|--7-8-7h8-8/10---7-8-7h8-8/10--10/12-10-8-8~---7-7h8-7^~-------7-8-7h8-8/10--8-7---10/12--10-8-7-|
|---------------------------------------------------------9-9~--------------------9---------------|
|-------------------------------------------------------------------------------------------------|
|-------------------------------------------------------------------------------------------------|
|-------------------------------------------------------------------------------------------------|

|-----------------------------------------------------------------------------|
|--8-7-5---5-7-8-10-10/12-10-8-7--8-7-5---5-7-8-8/10-10~----------------------|
|--------8------------------------------8-------------------------------------|
|-----------------------------------------------------------------------------|
|-----------------------------------------------------------------------------|
|-----------------------------------------------------------------------------|

Am            D                 Em
Tapi sayang kehadiran kekasih lama mu
C               D                Em
Datang kembali mengenang cinta dahulu

Em                Am
Mengapa ini semua harus berlaku
D                 G
Apakah ini semua kerna diri ku
C                            B
Sedangkan aku cuma watak dalam percintaan
C           D          Em
Tak sanggup aku melepaskanmu

Am             D                Em
Kau ibarat terperangkap ditengah lautan
C             D              Em
Tak tahu mana arah untuk kau menuju

Em                    D
Andai kau pinta untuk melepaskan mu
B             Em
Terpaksa aku turutkan
Em                 D
Mungkinkah ini suatu pengajaran
B              Em
Di dalam percintaan

Em D Em 

(strumming) D em~~

Tabbed by Manda
Tap to rate this tab
 
# A B C D E F G H I J K L M N O P Q R S T U V W X Y Z