Misc Unsigned Bands - Skarpretter - Fuck You System tab

a danish anarcho punk band from Copenhagen

Verse

e|------------------------------------|
B|------------------------------------|
G|-7-7-7-7-7-7-7-7-5-5-5-5-7-7-5-6-7--|
D|-7-7-7-7-7-7-7-7-5-5-5-5-7-7-5-6-7--|
A|-5-5-5-5-5-5-5-5-3-3-3-3-5-5-3-4-5--|
E|------------------------------------|


Chorus

e|----------------------------------------|
B|----------------------------------------|
G|---7-7-7-7-10-10-5-5-7-7-7-7-10-10-5-5--|
D|---7-7-7-7-10-10-5-5-7-7-7-7-10-10-5-5--|
A|---5-5-5-5---8-8-3-3-5-5-5-5---8-8-3-3--|
E|----------------------------------------|
Tap to rate this tab
 
# A B C D E F G H I J K L M N O P Q R S T U V W X Y Z