Misc Unsigned Bands - The Sugarland Run - In The Hollow Of Thy Hand tab

This is the version heard on the RM. little bit faster and whatnot then you might 
hear janice kapp perry do it

during the chorus i didnt have enough room to write out all the words so i just 
wrote the word above the chord where it changes

strumming pattern is irrelevant i mean, if you listen to the song it's pretty much 
all down and pretty fast. but you can just make something up that sounds just as good.

e|-----------------------------------------------|
B|-----------------------------------------------|  repeat this once, then
G|-----------------------------------------------|  end on 5
D|---9--7--5--------9--7--5-------9--7--5-4-0----|
A|-----------------------------------------------|
E|-----------------------------------------------|

   "Dear lord blesess us with love..."
e|-----------------------------------------------|
B|-----------------------------------------------|
G|-----------------------------------------------|
D|--3-------------------------7------------------|
A|--3-------------------------7------------------|
E|--5-------------------------5------------------|


    "please send this day, thy spirit from above"
e|-----------------------------------------------|      this is the speed
B|-----------------------------------------------|      every verse is played
G|--7--------------------------------------------|     at. so instead of
D|--7----------------------------------------3---|      writing out every line
A|--5----------------------------------------3---|      I'll just skip to the
E|-------------------------------------------5---|      chorus.
                                                      (although this repeats
                                                       every verse)
   hollow        hand       grows            man
e|-----------------------------------------------|
B|-----------------------------------------------|
G|---------------------------7-------------------|  <---chorus
D|--5------------7-----------7---------------5---|     (played at x2 speed
A|--5------------7-----------5---------------5---|      of verses)
E|--3------------5---------------------------3---|

  understanding  deepen      increase 
e|-----------------------------------------------|
B|-----------------------------------------------|
G|--4------------------------7----------------7--|
D|--4------------7-----------7----------------7--|
A|--2------------7-----------5----------------5--|
E|---------------5-------------------------------|

   hollow        hand       grows            man
e|-----------------------------------------------|
B|-----------------------------------------------|
G|---------------------------7-------------------| 
D|--5------------7-----------7---------------5---|     
A|--5------------7-----------5---------------5---|      
E|--3------------5---------------------------3---|

   know          blessing     peace
e|-----------------------------------------------|
B|-----------------------------------------------|
G|--2------------7-------------------------------|  
D|--2------------7------------5--------------5---| 
A|--4------------5------------5--------------5---|
E|----------------------------3--------------3---|
Tap to rate this tab
 
# A B C D E F G H I J K L M N O P Q R S T U V W X Y Z