Song name
# A B C D E F G H I J K L M N O P Q R S T U V W X Y Z

Misc Unsigned Bands - Jorge Quintero - 300 Violin Orchestra tab

 300 string orcherstra
 Tab by:jahnsje

 Standard drop D tuning

 Now, this entire song was done with different tracks. Some things will need  to be 
played overlaped on an audio recorder to get the 2 guitar sound.

Here is the original:
http://www.youtube.com/watch?v=iRj_KCNkdwM



 After the choral parts, the lead guitar comes in with:

 Guitar I INTRO (PALM MUTED)

  e|0---0-2--0---0-2--0---0-2--0---0-2-|0---0-2--0---0-2--0-2--0-2--0-2--0-2--|
  B|-222-2-2--222-2-2--222-2-2--222-2-2|--------------------------------------|
  G|-----------------------------------|-222-2-2--222-2-2--2-2--2-2--2-2--2-2-|
  D|-----------------------------------|--------------------------------------|
  A|-----------------------------------|--------------------------------------|
  D|-----------------------------------|--------------------------------------|


 Guitar II starts on beat 2 of the second measure(BOTH PARTS PLAYED SEPARATELY)

		e|--12-9-12---12-9-12---12---12---12--16-17-14|16--|

		B|--10-5-10---10-5-10---10---10---10--17-17-16|14--|

		G|--------------------------------------------|----|
		D|--------------------------------------------|----|
		A|--------------------------------------------|----|
		D|--------------------------------------------|----|








(Main Verse)(MUTED)(REPEATED TILL END!)

 e|0-0-0-0-0-0-0-2-|0-0-0-0-0-0-0-2-|0-0-0-0-0-0-0-2-|0-0-0-0-0-0-0-2-|
 B|-2-2-2-2-2-2-2-2|-2-2-2-2-2-2-2-2|-2-2-2-2-2-2-2-2|-2-2-2-2-2-2-2-2|
 G|----------------|----------------|----------------|----------------|
 D|----------------|----------------|----------------|----------------|
 A|----------------|----------------|----------------|----------------|
 D|----------------|----------------|----------------|----------------|


 These 2 parts are separate, but should be played together with the previous  part like this.

 e|----------------|------------5420|----------------|------------5420|
 B|----------------|----------------|----------------|----------------|
 G|----------------|-------quietly->|2222222222222222|2222222222222222|
 D|----------------|----------------|----------------|----------------|
 A|----------------|----------------|----------------|----------------|
 D|----------------|----------------|----------------|----------------|


 This is that really high solo part

   Play this 3 times          on the fourth time, play the
		              last 7 notes really fast


 e|9-12-11-16-12-14-11-12|     9-12-11-16----16.17.14.16.12.14.11|
 B|----------------------|     ----------------------------------|
 G|----------------------|     ----------------------------------|
 D|----------------------|     ----------------------------------|
 A|----------------------|     ----------------------------------|
 D|----------------------|     ----------------------------------|


      And Finally, the drop D power chords

	            e|----------|----------|----------|------------|
	            B|----------|----------|----------|------------|
	            G|----------|----------|----------|------------|
	            D|11--11---9|11--11---9|7---7-----|7---7----9--|
	            A|11--11---9|11--11---9|7---7-----|7---7----9--|
	            D|11--11---9|11--11---9|7---7-----|7---7----9--|
               Count |1 +2+ 3+4+|1 +2+ 3+4+|1 +2+ 3+4+|1 +2+ 3+4e+a|
Tap to rate this tab
 
# A B C D E F G H I J K L M N O P Q R S T U V W X Y Z