Misc Unsigned Bands - Hesion - Kuv Yeej Ua tab

Hey guys this is my first tab so please bare with me. Its not 100% correct
but it sounds good enough to my ears. I figure my "close enough" tab is
better than the no tabs online. bwahhaha, Hope it helps you somehow and
enjoy playing the song :)

Kuv Yeej Ua - Hesion/Empathy
Tabbed by: KONGLEE
Email:konglicious@yahoo.com
      Kongphenglee@hotmail.com

Tuning: Standard


(Intro)

e|-----------------------------------------------------------------------|
B|-0---------0-0h2---------------3----------------------------0----------|
G|-0------2--------2---0--2----2--------0------------0--0--0-----0-------|
D|-----0-------------0----0--0------0h2---0h2----2------------------2----|
A|-----------------------------------------------------------------------|
E|-3----------------------2--------------------0-------------------------|

e|-----------------------------------------------------------------------|
B|--0-----------0h2----------------3---------3--------------------3------|
G|--4-------4---------4--------0---0------0--------0------2----2---------|
D|------4------------------4-----------2--------3-----0---0--0-----------|
A|--2------------------------------3-------------------------------------|
E|--------------------------------------------------------2--------------|

e|-----------------------------------------------------------------------|
B|--------------3--------3------------3---------3------------------------|
G|-------0------0-----0---------0-----0------0-----------0---------------|
D|--0h2-----0---0--2--------0h2----0--0---2---------0h2-----0------------|
A|-----------------------------------------------------------------------|
E|--------------3---------------------3----------------------------------|

(Verse)
Play this 2x

e|-----------------------------------------------------------------------|
B|--2--------3---3----------3----3---------3-----------------------------|
G|--0-----0------2------2--------0------0--------0-----------------------|
D|-----2------------0----------------2--------2-----0--------------------|
A|-------------------------------2---------------------------------------|
E|--3------------2-------------------------------------------------------|

(PreChorus)
Play this 2x

e|-----------------------------------------------------------------------|
B|--1--------1---0---------0---3---------3-------------------------------|
G|--2-----2------0------0------0------0--------0-------------------------|
D|-----2-------------2-------------2--------2-----0----------------------|
A|--0------------2-------------3-----------------------------------------|
E|-----------------------------------------------------------------------|

(Chorus)

e|-----------------------------------------------------------------------|
B|--3--------3-------------3--------3--------------0------------0--------|
G|--0-----0--------0-------2-----2--------2--------0-----0-0-0-----0-----|
D|-----2--------2-----0-------0--------0-----0h2------2---------------2--|
A|-------------------------------------------------2---------------------|
E|--3----------------------2---------------------------------------------|

e|-----------------------------------------------------------------------|
B|--0--------0h2------------3---------3------------3--------3------------|
G|--4-----4-------4-----0---0------0--------0------2-----2----------0----|
D|-----4-------------4----------2--------2-----0------0---------0h2----0-|
A|--2-----------------------3--------------------------------------------|
E|-------------------------------------------------2---------------------|

e|-----------------------------------------------------------------------|
B|--3--------3---------------3--------3----------------------------------|
G|--0-----0----------0-------0-----0------------0------------------------|
D|-----2--------0h2------0------2---------0h2-------0--------------------|
A|-----------------------------------------------------------------------|
E|--3------------------------3-------------------------------------------|

Play Verse/PreChorus
(same as earlier)

(Chorus)

e|-----------------------------------------------------------------------|
B|--3--------3-------------3--------3--------------0------------0--------|
G|--0-----0--------0-------2-----2--------2--------0-----0-0-0-----0-----|
D|-----2--------2-----0-------0--------0-----0h2------2---------------2--|
A|-------------------------------------------------2---------------------|
E|--3----------------------2---------------------------------------------|

e|-----------------------------------------------------------------------|
B|--0--------0h2------------3---------3------------3--------3------------|
G|--4-----4-------4-----0---0------0--------0------2-----2--------2------|
D|-----4-------------4----------2--------2-----0------0--------0-----0---|
A|--2-----------------------3--------------------------------------------|
E|-------------------------------------------------2---------------------|

(Bridge)

e|-----------------------------------------------------------------------|
B|--3---------3----------3--------3------------3---------3---------------|
G|--0------0-------0-----2-----2--------2------0------0--------2---------|
D|-----2--------2-----0-----0--------0-----0-------2--------0-----0------|
A|--3------------------------------------------3-------------------------|
E|-----------------------2-----------------------------------------------|


e|------------------------------------------------------------------------|
B|--3---------3-----------------------------------------------------------|
G|--2-----2---------2-----------------------------------------------------|
D|-----0---------0------0-------------------------------------------------|
A|------------------------------------------------------------------------|
E|--2---------------------------------------------------------------------|

(Music Break/Chorus)

e|-----------------------------------------------------------------------|
B|--3--------3-------------3--------3----------------------------0-------|
G|--0-----0--------0-------2-----2----------0-------------0-0-0----0-----|
D|-----2--------2-----0-------0--------0h2-----0h2-----2-------------0---|
A|-----------------------------------------------------------------------|
E|--3----------------------2------------------------0--------------------|

e|-----------------------------------------------------------------------|
B|--0--------0h2------------3---------3------------3--------3------------|
G|--4-----4-------4-----0---0------0--------0------2-----2--------2------|
D|-----4-------------4----------2--------2-----0------0--------0-----0---|
A|--2-----------------------3--------------------------------------------|
E|-------------------------------------------------2---------------------|

e|-----------------------------------------------------------------------|
B|--3--------3------------3---------3------------------------------------|
G|--0-----0---------0-----0------0----------0----------------------------|
D|-----2--------0h2----0------2--------0h2-----0-------------------------|
A|-----------------------------------------------------------------------|
E|--3---------------------3----------------------------------------------|

(Chorus)

Im not really sure how the ending goes...lol. I just loop back the chorus
mixed with the intro or something. End it how you want. lol
Tap to rate this tab
 
# A B C D E F G H I J K L M N O P Q R S T U V W X Y Z