Misc Unsigned Bands - Heroes Make Martyrs - The Break tab

  |-----------------INTRO-----------------|
  |      2X           |       2X          |
C#|-----0--------0---0|-----0------0---0--||
G#|----6-6--------6---|----0-0------0---0-||
 E|---7---7----7---7--|---5---0---5--0----||
 B|--7--------7-------|--7-------7--------||
F#|-5--------5--------|-0-------0---------||
 B|-------------------|-------------------||

              Intro Breakdown

C#|-------------------------------------------------------------------------|
G#|-------------------------------------------------------------------------|
 E|-------------------------------------------------------------------------|
 B|------------------------------------------00-0-0-000-0-0--------00-0-0---|
F#|--------------8p7-10--------------8p7\4h5-00-0-0-000-0-0-8p7-10-00-0-0---|
 B|00-0-0-000-0-0------00-0-0-000-0-0--------11-1-1-111-1-1--------11-1-1---|


C#|---------------||----||--------------------------------------------------|
G#|---------------||----||------------X2------------------------------------|
 E|---------------||----||--------------------------------------------------|
 B|000-0-0--------||-0~-||--------------------------------------------------|
F#|000-0-0-8p7\4h5||-0~-||----3h6-5h8---3h6-5h8-2h3---3h6---3h6-5h8-7h10----|
 B|111-1-1--------||-0~-||-000-------000-----------000---000----------------|


C#|--------------||---------------------------------------------------------|
G#|--------------||---------------------------------------------------------|
 E|--------------||---------------------------------------------------------|
 B|--------------||---------------------------------------------------------|
F#|-8h11-7h10-5h8||---7h10-9h12---7h10-9h12-6h7---7h10---7h10-9h12-11h14----|
 B|--------------||000---------000-------------000----000-------------------|


C#|----------------||
G#|----------------||
 E|----------------||
 B|----------------||
F#|12h15-11h14-9h12||
 B|----------------||

                 CHORUS

C#|---------------------------------------------------------------||
G#|---------------------------------------------------------------||
 E|------------------------------------------------------7777/9999||
 B|000000-333333-888888-777101010---000000-333333-222222-xxxx/xxxx||
F#|000000-333333-888888-777101010---000000-333333-222222-5555/7777||
 B|000000-333333-888888-777101010---000000-333333-222222----------||



C#|----------------|------------------||
G#|----------------|------------------||
 E|----------------|------------------||
 B|0---------------|5--5--5p3-3--3-3p2||
F#|0--5-7-5-8-7-5h7|5---------3-------||
 B|0-0-0-0-0-0-0---|5-5-5-----3-3-3---||


C#|---------------------------||-----|---------|
G#|---------------------------||-----|---------|
 E|---------------------------||-7~\-|---------|
 B|---------------------------||-6~\-|---------|
F#|---------------------------||-5~\-|-0-3---3*|
 B|000-000-0-0-0-0-0-0-0-0-000||-----|-0-3-0---|


C#|-------------------------||
G#|-------------------------||
 E|-------------------------||
 B|0~--8~--5~--3~--2~--0~--0||
F#|0~--8~--5~--3~--2~--0~--0||
 B|0~--8~--5~--3~--2~--0~--0||


C#|----------------------------------------------------------|
G#|----------------------------------------------------------|
 E|----------------------------------------------------------|
 B|----------------------------------------------------------|
F#|00-333444-2-1-0--00-333444-2-1-0-00-333444333222000222000-|
 B|00--------3-2-1--00--------3-2-1-00-----------------------|


C#|------------------------------------------------||
G#|------------------------------------------------||
 E|------------------------------------------------||
 B|------------------------------------------------||
F#|00-33344333222000222000--00--2-1-0-0--00-2-1-0-0||
 B|00-----------------------00--3-2-1-0--00-3-2-1-0||


C#|-------------------------------------------------------------------------|
G#|-------------------------------------------------------------------------|
 E|------------------------------------------------------7777/9999----------|
 B|000000-333333-888888-777101010--000000-333333-222222--xxxx/xxxx----------|
F#|000000-333333-888888-777101010--000000-333333-222222--5555/7777----------|
 B|000000-333333-888888-777101010--000000-333333-222222---------------------|






thanks to any viewers. took awhile. im new at this . comment and rate and what not
Tap to rate this tab
 
# A B C D E F G H I J K L M N O P Q R S T U V W X Y Z