Misc Unsigned Bands - Rohan Rathore - Emptiness tab

-------------------------------------------------------------------------------
			                           Emptiness - Rohan Rathore
-------------------------------------------------------------------------------

Tuning: standard


Verse and Chorus
e|-----------------------------------------------------------------------------|
B|-----13--------13--------13--------13--------10--------11-------8~--8-10-8---|
G|---14--14----14--14----14--14----14--14----10--10----10--10----9--9-------9~-|
D|-15--------15--------14--------14--------12--------12--------10--------------|
A|-----------------------------------------------------------------------------|
E|-----------------------------------------------------------------------------|

Outro
e|----------------15---------------------------------------------------------|
B|-18-17-18p17h18---18~----17~-17~-------------------------------------------|
G|---------------------------------------------------------------------------|
D|---------------------------------------------------------------------------|
A|---------------------------------------------------------------------------|
E|---------------------------------------------------------------------------|

Really simple. Enjoy~

************************************

| /   slide up
| \   slide down
| h   hammer-on
| p   pull-off
| ~   vibrato / let ring
| +   harmonic
| x   Mute note
| b   Bend
| pb  Pre-bend
| br  Bend release
| pbr Pre-bend release
| brb Bend release bend

************************************
Tap to rate this tab
 
# A B C D E F G H I J K L M N O P Q R S T U V W X Y Z