Song name
# A B C D E F G H I J K L M N O P Q R S T U V W X Y Z

Misc Unsigned Bands - Death Diaries - Lifeless tab

Band: Death Diaries
Song: "Lifeless"
Year:2010
Album:Demo
Country: Jordan
Genre: Depressive Black Metal




|-------------------------------------------------------------|
|----------7-----7-----7-----7-----6-----6--------6-----6-----|
|--------8-----8-----8-----8---------8-----8--------7-----7---|
|-------------------------------------------------------------|
|------6-----6-----6-----6------------------------------------|
|--------------------------------7-----7--------6-----6-------| 

That's the calm depressing notes of the clean guitar 
(It's played about 70 bpm). You play it throughout the whole song except 
at the middle when you just play and pause and play 
and pause (Just hear it and you know what I'm talking about).

The back up riffs on the distortion is:

|-------------------------------------------------------------|
|-------------------------------------------------------------|
|----8--------------------------------------------------------|
|----8-------------------9------------------------------------|
|----6-------------------9------------------------------------|
|------------------------7------------------------------------|

Hold the chords.


This all to the song really, I didn't feel like 
tabbing out the little solo notes throughout one 
part of the song. This song is played on the D tone.


Tabbed out by: Eric Tobar
Tap to rate this tab
 
# A B C D E F G H I J K L M N O P Q R S T U V W X Y Z