Misc Unsigned Bands - Tria Mera - A Burning Horizon tab

TRIA MERA - A Burning Horizon

The main track from Tria Mera's EP!

Official Tria Mera Facebook Page
www.facebook.com/triameraband

Official Promo for "A Burning Horizon"
http://www.youtube.com/watch?v=KzaqB_a20IE

Tuning: Drop C (CGCFAD)

INTRO/OUTRO RIFF

D|----------------------|-----------------------|----------------------|-----------------|
A|----------------------|-----------------------|----------------------|-----------------|
F|----------------------|-----------------------|----------------------|-----------------|
C|----------------------|-----------------------|----------------------|-----------------|
G|----------------------|-----------------------|----------------------|---------0-------|
C|-0-12-10-0-13-10-0-12-|-0-10-12-0-16-13-12-15-|-0-12-10-0-13-10-0-12-|-0-8-7-0---4-3-1-|

VERSE RIFF 1

D|-----------------|-------------------------|-----------------|------------------------|
A|-----------------|-------------------------|-----------------|------------------------|
F|-----------------|-------------------------|-----------------|------------------------|
C|-----------------|-------------------------|-----------------|------------------------|
G|-----------------|-13-12----------------12-|-----------------|------------------------|
C|-0-0-0-0---0-0-0-|-------13-12-10-12-13----|-0-0-0-0---0-0-0-|-0-12-10-13-12-10-12-13-|

D|-----------------|-------------------------|-----------------|-----------------|
A|-----------------|-------------------------|-----------------|-----------------|
F|-----------------|-------------------------|-----------------|-----------------|
C|-----------------|-------------------------|-----------------|-----------------|
G|-----------------|-13-12----------------12-|-----------------|-----------------|
C|-0-0-0-0---0-0-0-|-------13-12-10-12-13----|-0-0-0-0---0-0-0-|-4-3-1-4-3-1-4-3-|

VERSE RIFF 2

D|---------------------|---------------------|---------------------|-------------|
A|---------------------|---------------------|---------------------|-------------|
F|---------------------|---------------------|---------------------|-------------|
C|---------------------|---------------------|---------------------|-------------|
G|---------13-------12-|---------13-------12-|---------13-------12-|----------12-|
C|-000-000----12-13----|-000-000----12-13----|-000-000----12-13----|-13-12-10----|

PRE CHORUS RIFF

D|------------------------------------------------------|
A|------------------------------------------------------|
F|------------------------------------------------------|
C|-12h13p12-------12h13p12-------12h13p12---------------|
G|----------15-13----------15-13----------15-13---------|
C|----------------------------------------------0-0-0-0-|

CHORUS - GUITAR 1
D|-----------------|-----------------|-----------------|-----------------|
A|-5-5-5-5-5-5-5-5-|-5-5-5-5-5-5-5-5-|-6-6-6-6-6-6-6-6-|-6-6-6-6---------|
F|-7-7-7-7-7-7-7-7-|-7-7-7-7-7-7-7-7-|-7-7-7-7-7-7-7-7-|-7-7-7-7-2-2-2-2-|
C|-7-7-7-7-7-7-7-7-|-7-7-7-7-7-7-7-7-|-7-7-7-7-7-7-7-7-|-7-7-7-7-2-2-2-2-|
G|-5-5-5-5-5-5-5-5-|-5-5-5-5-5-5-5-5-|-5-5-5-5-5-5-5-5-|-5-5-5-5-0-0-0-0-|
C|-----------------|-----------------|-----------------|-----------------|

D|-----------------|-----------------|-----------------|-----------------|
A|-3-3-3-3-3-3-3-3-|-3-3-3-3-3-3-3-3-|-----------------|-----------------|
F|-3-3-3-3-3-3-3-3-|-3-3-3-3-3-3-3-3-|-----------------|-----------------|
C|-3-3-3-3-3-3-3-3-|-3-3-3-3-3-3-3-3-|-5-5-----5-5-----|-5-5-----5-5-----|
G|-1-1-1-1-1-1-1-1-|-1-1-1-1-1-1-1-1-|-5-5-----5-5-----|-5-5-----5-5-----|
C|-----------------|-----------------|-5-5-5-5-5-5-5-5-|-5-5-5-5-5-5-5-5-|

CHORUS - GUITAR 2

D|---------------------|---------------------|---------------------|---------------------|
A|-17p15--15-17p15--15-|-17p15--15-17p15--15-|-17p15--15-17p15--15-|-17p15--15-17p15--15-|
F|------14--------14---|------14--------14---|------14--------14---|------14--------14---|
C|---------------------|---------------------|---------------------|---------------------|
G|---------------------|---------------------|---------------------|---------------------|
C|---------------------|---------------------|---------------------|---------------------|

D|---------------------|---------------------|---------------------|---------------------|
A|-18p15--15-18p15--15-|-17p15--15-17p15--15-|-15p13--13-15p13--13-|-15p13--13-15p13--13-|
F|------14--------14---|------14--------14---|------12--------12---|------12--------12---|
C|---------------------|---------------------|---------------------|---------------------|
G|---------------------|---------------------|---------------------|---------------------|
C|---------------------|---------------------|---------------------|---------------------|

BREAKDOWN RIFF 1

D|-----------------|-----------------|-----------------|-----------------------|
A|-----------------|-----------------|-----------------|-----------------------|
F|-----------------|-----------------|-----------------|-----------------------|
C|-----------------|-----------------|-----------------|-----------------------|
G|-----------------|-----------------|-----------------|-----------------------|
C|-0-0-0-0---0-0-0-|-000-0-0-0-0-0---|-0-0-0-0---0-0-0-|-0-0-0-0----0-0-0-0----|
                                                         \_3_/      \_3_/

D|-----------------|-----------------|-----------------|-----------------|
A|-----------------|-----------------|-----------------|-----------------|
F|-----------------|-----------------|-----------------|-----------------|
C|-----------------|-----------------|-----------------|-------------7---|
G|-----------------|-----------------|-----------------|-9-8-6-9-8-6---9-|
C|-0-0-0-0---0-0-0-|-000-0-0-0-0-0---|-0-0-0-0---0-0-0-|-----------------|

D|-----------------|
A|-----------------|
F|-----------------|
C|-----------------|
G|-----------------|
C|-4-3-1-4-3-1-4-3-|

BREAKDOWN RIFF 1 - GUITAR 2 "HARMONY"

D|-----------------------|
A|-----------------10----|
F|-11-10-8-11-10-8----11-|
C|-----------------------|
G|-----------------------|
C|-----------------------|

BREAKDOWN RIFF 2

D|------------------|-----------------|------------------|-----------------|
A|------------------|-----------------|------------------|-----------------|
F|------------------|-----------------|------------------|-----------------|
C|------------------|-----------------|------------------|-----------------|
G|------------------|-----------------|------------------|---6------<6>----|
C|-0-0-0-0----0-0-0-|-0-0-0-0-0-0-0-0-|-0-0-0-0----0-0-0-|-0------0--------|

D|------------------|-----------------|------------------|---------------|
A|------------------|-----------------|------------------|---------------|
F|------------------|-----------------|------------------|---------------|
C|------------------|-----------------|------------------|---8-----------|
G|------------------|-----------------|------------------|---6------1----|
C|-0-0-0-0----0-0-0-|-0-0-0-0-0-0-0-0-|-0-0-0-0----0-0-0-|-0------0-1----|

GUITAR SOLO - RHYTHM

D|-------|-------|--------|-------|
A|-------|-------|--------|-------|
F|-------|-------|--------|-------|
C|-------|-------|--------|-------|
G|-0-----|-8-----|-11-----|-7-----|
C|-0-----|-8-----|-11-----|-7-----|

D|-----------------|-----------------|-----------------|-----------------|
A|-3-3-3-3-3-3-3-3-|-3-3-3-3-3-3-3-3-|-6-6-6-6-6-6-6-6-|-6-6-6-6-6-6-6-6-|
F|-3-3-3-3-3-3-3-3-|-3-3-3-3-3-3-3-3-|-7-7-7-7-7-7-7-7-|-7-7-7-7-7-7-7-7-|
C|-3-3-3-3-3-3-3-3-|-3-3-3-3-3-3-3-3-|-7-7-7-7-7-7-7-7-|-7-7-7-7-7-7-7-7-|
G|-1-1-1-1-1-1-1-1-|-1-1-1-1-1-1-1-1-|-5-5-5-5-5-5-5-5-|-5-5-5-5-5-5-5-5-|
C|-----------------|-----------------|-----------------|-----------------|

D|-----------------------------------|-----------------|-----------------|
A|-5-5-5-5-5-5-5-5-|-5-5-5-5-5-5-5-5-|-----------------|-----------------|
F|-5-5-5-5-5-5-5-5-|-5-5-5-5-5-5-5-5-|-5-5-5-5-5-5-5-5-|-5-5-5-5-5-5-5-5-|
C|-5-5-5-5-5-5-5-5-|-5-5-5-5-5-5-5-5-|-3-3-3-3-3-3-3-3-|-3-3-3-3-3-3-3-3-|
G|-3-3-3-3-3-3-3-3-|-3-3-3-3-3-3-3-3-|-3-3-3-3-3-3-3-3-|-3-3-3-3-3-3-3-3-|
C|-----------------|-----------------|-3-3-3-3-3-3-3-3-|-3-3-3-3-3-3-3-3-|

GUITAR SOLO - LEAD

D|----------------------------------------------------|
A|------15---17--18---15---18--17---15---17p15-14-----|
F|s14-------------------------------------------------|
C|----------------------------------------------------|
G|----------------------------------------------------|
C|----------------------------------------------------|

D|---------------------------------------------------------------------|
A|-15p14-15---s17-17---s18-18---s20-20b22--20----22-20-18--------------|
F|--------------------------------------------------------21-19s13-----|
C|---------------------------------------------------------------------|
G|---------------------------------------------------------------------|
C|---------------------------------------------------------------------|

D|------------13-17p13----------13-17p13----------13-17p13----------13-|
A|----------15---------15----15----------15----15----------15----15----|
F|--------14--------------14----------------14----------------14-------|
C|------15-------------------------------------------------------------|
G|-12h17---------------------------------------------------------------|
C|---------------------------------------------------------------------|

D|-17p13----------12-15p12----------10---------------------13-12-10---13-12-10----10----|
A|-------15----15----------13----13---------13b15---13-------------------------13-------|
F|----------14----------------12--------------------------------------------------------|
C|--------------------------------------------------------------------------------------|
G|--------------------------------------------------------------------------------------|
C|--------------------------------------------------------------------------------------|

D|-17p13----------13-17p13----------13-17p13----------13-17p13-15p13-|
A|-------15----15----------15----15----------15----15----------------|
F|----------14----------------14----------------14-------------------|
C|-------------------------------------------------------------------|  x 3
G|-------------------------------------------------------------------|
C|-------------------------------------------------------------------|

D|---------------------------------------|
A|---------------------------------------|
F|-<7>-----<5>------<3>------------------|
C|---------------------------------------|
G|---------------------------------------|
C|---------------------------------------|
      DIVE HARMONICS
Tap to rate this tab
 
# A B C D E F G H I J K L M N O P Q R S T U V W X Y Z