Song name
# A B C D E F G H I J K L M N O P Q R S T U V W X Y Z

Misc Unsigned Bands - Shallow Like Me - I Lost My Turtle tab

(*=Palm Mute) (=Vibrato)
Intro(x2)
--------------------------------------------------------------------|
---------0-----------------0----------------0---------------0-------|
-----0-----0---0------0------0----0-----0-----0---0-----0-----0---0-|
---9---9-----9-----10---10-----10-----9---9-----9-----7---7-----7---|
-7---------------7------------------6---------------6---------------|
--------------------------------------------------------------------|

----------------------------------------------------------------------|
----------0------------------0----------------0---------------3-------|
------0-----0---0-------0------0----0-----0-----0---0-----0-----0---0-|
----9---9-----9------10---10-----10-----7---7-----7-----4---4-----4---|
--------------------------------------4---------------3---------------|
-10---------------10--------------------------------------------------|

---------------------------|
---------------------------|
---------------------------|  x6
-2-2--2-2--2-2-2-2-2-2-2-2-|
-2-2--2-2--2-2-2-2-2-2-2-2-|
-0-0--0-0--0-0-0-0-0-0-0-0-|
 * *  * *  * * * * * * * *

--------------|
--------------|
--------------|  x4
--------------|
-2-2-2--2-2-2-|
-0-1-0--0-1-0-|

-----------------------------------------------------------------|
-----------------------------------------------------------------|
---0-----0-----------0-----0---------0-----0---------0-------0---|  x2
-----9-----9---9---7-----7-----7---5-----5-----5---5---5---5---5-|
-7-----7-----7---5-----5-----5---3-----3-----3-------------------|
-------------------------------------------------3-------2-------|
 * * * * * * * * * * * * * * * * * * * * * * * * * * * * * * * *

Verse 1(x2)
-------------------------------------------------|
-------------------------------------------------|
-----0-----0-----0-----0-----0-----0-----0-----0-|
-----5-----5-----5-----4-----5-----5-----5-----7-|
-------------3-3---5-5---------------3-3---5-5---|
-0-0---0-0---------------0-0---0-0---------------|
 * *   * *   * *   * *   * *   * *   * *   * *

-------------------------------------------------|
-------------------------------------------------|
-----0-----0-----0-----0-----0-----0-----0-----0-|
-----5-----5-----5-----5-----7-----7-----4-----4-|
-------------3-3---3-3---5-5---5-5---5-5---5-5---|
-0-0---0-0---------------------------------------|
 * *   * *   * *   * *   * *   * *   * *   * *

Chorus 1
---------------------------------------------------------|
---------------------------------------------------------|
------------------------------------------------77777777-|
-55555555-5555-5555-55555555-5555-5555-22222222-77777777-|
-55555555-5555-5555-33333333-2222-3333-22222222-55555555-|
-33333333-5555-3333-22222222-3333-2222-00000000----------|

-------------------|
----------44444444-|
-55555555-55555555-|
-55555555-55555555-|
-33333333-33333333-|
-------------------|

--------------------------------------------------------------------|
---------------------------------------------------------55555555-4-|
------------------------------------------------77777777-55555555-5-|
-55555555-5555-5555-55555555-5555-5555-22222222-77777777-55555555-5-|
-55555555-5555-5555-33333333-2222-3333-22222222-55555555-33333333-3-|
-33333333-5555-3333-22222222-3333-2222-00000000---------------------|

Intro Riff
-----------------------------------------------------------------|
-----------------------------------------------------------------|
---0-----0-----------0-----0---------0-----0---------0-------0---|  x2
-----9-----9---9---7-----7-----7---5-----5-----5---5---5---5---5-|
-7-----7-----7---5-----5-----5---3-----3-----3-------------------|
-------------------------------------------------3-------2-------|
 * * * * * * * * * * * * * * * * * * * * * * * * * * * * * * * *

Verse 2(x2)
-------------------------------------------------|
-------------------------------------------------|
-----0-----0-----0-----0-----0-----0-----0-----0-|
-----5-----5-----5-----4-----5-----5-----5-----7-|
-------------3-3---5-5---------------3-3---5-5---|
-0-0---0-0---------------0-0---0-0---------------|
 * *   * *   * *   * *   * *   * *   * *   * *

-------------------------------------------------|
-------------------------------------------------|
-----0-----0-----0-----0-----0-----0-----0-----0-|
-----5-----5-----5-----5-----7-----7-----4-----4-|
-------------3-3---3-3---5-5---5-5---5-5---5-5---|
-0-0---0-0---------------------------------------|
 * *   * *   * *   * *   * *   * *   * *   * *


Chorus 2
---------------------------------------------------------|
---------------------------------------------------------|
------------------------------------------------77777777-|
-55555555-5555-5555-55555555-5555-5555-22222222-77777777-|
-55555555-5555-5555-33333333-2222-3333-22222222-55555555-|
-33333333-5555-3333-22222222-3333-2222-00000000----------|

-------------------|
----------44444444-|
-55555555-55555555-|
-55555555-55555555-|
-33333333-33333333-|
-------------------|

--------------------------------------------------------------------|
---------------------------------------------------------55555555-4-|
------------------------------------------------77777777-55555555-5-|
-55555555-5555-5555-55555555-5555-5555-22222222-77777777-55555555-5-|
-55555555-5555-5555-33333333-2222-3333-22222222-55555555-33333333-3-|
-33333333-5555-3333-22222222-3333-2222-00000000---------------------|

Bridge
---------------------------------------------------------------------|
---------------------------------------------------------------------|
---------------------------------------------------------------------|
---9---9---9---9---7---7---7---7----9----9----9----9---7---7---7---7-|
-7---7---7---7---6---6---6---6-----------------------4---4---4---4---|
---------------------------------10---10---10---10-------------------|
 * * * * * * * * * * * * * * * * *  *  * *  * *  * * * * * * * * * *

-----------------------------------------------------------------|
-----------------------------------------------------------------|
-----------------------------------------------------------------|
-----5-4---4-5---5-4---4-5---5-------4-5---5-4---4-5---5-4---4---|
-3-3-----3-----3-----3-----3---3-5-5-----5-----5-----5-----5---5-|
-----------------------------------------------------------------|
 * * * * * * * * * * * * * * * * * * * * * * * * * * * * * * * *

---------------------------------------------------------------------|
---------------------------------------------------------------------|
---------------------------------------------------------------------|
-----9-7-5-7-5-----7-5-4-5-4-----9-7-5-7-5-----7-5-4-5-4-|
-7-7--------------6-6--------------5-5--------------4-4--------------|
---------------------------------------------------------------------|
 * *              * *              * *              * *

-----------------------------------|
-----------------------------------|
-----------------------------------|
-5555555555555555-7777777777777777-|
-3333333333333333-5555555555555555-|
-----------------------------------|
 **************** ****************

---------------------------------------------------------------------|
---------------------------------------------------------------------|
-9-9-9-9-9-9-9-9-11-11-11-12-12-12-11-11-12-12-12-11-11-9-9-14-14-14-|
---------------------------------------------------------------------|
-7-7-7-7-7-7-7-7-9--9--9--10-10-10-9--9--10-10-10-9--9--7-7-12-12-12-|
---------------------------------------------------------------------|

----------------------------------------------------------------|
----------------------------------------------------------------|
-12-12-12-11-11-16-16-16-16-16-16-16-16-16-16-16-16-16-16-16-16-|
----------------------------------------------------------------|
-10-10-10-9--9--14-14-14-14-14-14-14-14-14-14-14-14-14-14-14-14-|
----------------------------------------------------------------|

-------------------------------------------------|
-------------------------------------------------|
-17-17-17-17-17-17-17-17-16-16-16-16-14-14-14-14-|
-------------------------------------------------|
-15-15-15-15-15-15-15-15-14-14-14-14-12-12-12-12-|
-------------------------------------------------|

Chorus 3(x2)
---------------------------------------------------------|
---------------------------------------------------------|
------------------------------------------------77777777-|
-55555555-5555-5555-55555555-5555-5555-22222222-77777777-|
-55555555-5555-5555-33333333-2222-3333-22222222-55555555-|
-33333333-5555-3333-22222222-3333-2222-00000000----------|

-------------------|
----------44444444-|
-55555555-55555555-|
-55555555-55555555-|
-33333333-33333333-|
-------------------|

--------------------------------------------------------------------|
---------------------------------------------------------55555555-4-|
------------------------------------------------77777777-55555555-5-|
-55555555-5555-5555-55555555-5555-5555-22222222-77777777-55555555-5-|
-55555555-5555-5555-33333333-2222-3333-22222222-55555555-33333333-3-|
-33333333-5555-3333-22222222-3333-2222-00000000---------------------|

---
---
---
-2- <<<--Let it ring
-2-
-0-



Drum Solo (4 measures)

Outro
---------------------------------------------------------|
---------------------------------------------------------|
---------------------------------------------------------|
-22-22-22-22---22-22-22-22---22-22-22-22---22-22-22-22---|
-22-22-22-22-2-22-22-22-22-2-22-22-22-22-2-22-22-22-22-2-|
-00-00-00-00-1-00-00-00-00-1-00-00-00-00-1-00-00-00-00-1-|
 ** ** ** **   ** ** ** **
Tap to rate this tab
 
# A B C D E F G H I J K L M N O P Q R S T U V W X Y Z