Song name
# A B C D E F G H I J K L M N O P Q R S T U V W X Y Z

Misc Unsigned Bands - Ninth Kingdom - Rape Of Paradise tab

Sathanas Aria: Ch3 The Rape Of Paradise
From Ninth Kingdom's The Dawning album

hear our songs visit us at:
www.ninthkingdom.org
www.myspace.com/ninthkingdom

Down tune 1 1/2 steps

6-C#    3-E
5-F#    2-G#
4-B     1-C#

R= repeat
\=slide
/=slide
A.H.= artificial harmonic
P.M.= palm mute
TR= trill

 1998

GTR 1&2
|------------------------|------------------------|R=1 |--------------|
|------------------------|------------------------|    |--------------|
|------------------------|------------------------|    |--------------|
|222222222222222222222222|555555555555444444444444|    |--5--4--5--7--|
|000000000000333333333333|222222222222222222222222|    |--3--2--3--5--|
|------------------------|------------------------|    |--------------|

GTR 1 riff 1
|------------------|------------------------|-------------------|
|------------------|------------------------|-------------------|
|------------------|------------------------|-------------------|
|------------------|------------------------|-------------------|
|-0-0-0-000-0-8-7~-|0-0-0-000-0-70007/12~---|0-0-0-000-0-14\11~-|
|------------------|------------------------|-------------------|
  pm---------|      pm---------| pm|           pm---------|
|-----------------------|R=1
|-----------------------|
|-----------------------|
|-----------------------|
|000000800000070000008~-|
|-----------------------|
 pm---| pm---| pm---|A.H.

GTR 2 riff 1
|------------------|------------------------|-------------------|
|------------------|------------------------|-------------------|
|------------------|------------------------|-------------------|
|-------------7-6~-|------------6---6/10~---|------------12\9~--|
|-0-0-0-000-0------|0-0-0-000-0--000--------|0-0-0-000-0--------|
|------------------|------------------------|-------------------|
  pm---------|      pm---------| pm|           pm---------|
|-----------------------|R=1
|-----------------------|
|-----------------------|
|------7------6------7--|
|000000-000000-000000---|
|-----------------------|
 pm---| pm---| pm---|A.H.

GTR 1&2 riff 2 (gtr1 can play all notes and gtr 2 do higher notes)
|-------------------------------------|R=1
|-------------------------------------|
|-------------------------------------|
|-----9-10------7-9------5-7------5-4-|
|-----7-7-------7-7------7-7------7-6-|
|0000------0000-----0000-----0000-----|
 pm--|     pm--|    pm--|    pm--|

GTR 1 riff 3
|-------------------------|------------------------|
|-------------------------|------------------------|
|-------------------------|------------------------|
|-7-----7-----10-7-10/14~-|7-----7-----10-7-10/14~-|
|-0-000-0-000-------------|8-888-8-888-------------|
|-------------------------|------------------------|
    pm-|  pm-|               pm-|  pm-|

|------------------------|----------------------------|R=1
|------------------------|----------------------------|
|------------------------|---------------10-9-7-------|
|7-----7-----10-7-10/14~-|-10-9-7-10-9-7--------9-7-6-|
|5-555-5-555-------------|----------------------------|
|------------------------|----------------------------|
   pm-|  pm-|

GTR 2 riff 3
|-------------------------|------------------------|
|-------------------------|------------------------|
|-------------------------|------------------------|
|-7-----7-----10-7-10/10~-|7-----7-----10-7-10/10~-|
|-0-000-0-000-------------|8-888-8-888-------------|
|-------------------------|------------------------|
    pm-|  pm-|               pm-|  pm-|

|------------------------|----------------------------|R=1
|------------------------|----------------------------|
|------------------------|---------------10-9-7-------|
|7-----7-----10-7-10/10~-|-10-9-7-10-9-7--------9-7-6-|
|5-555-5-555-------------|----------------------------|
|------------------------|----------------------------|
   pm-|  pm-|

GTR 1
|------------------|----------------------|R=1
|------------------|----------------------|
|------------------|--------------9~~~~~--|
|----7-7-9-6~~~6---|----7-7-9-6~~~--------|
|-0----------------|-0--------------------|
|----------------4-|--------------------4-|

GTR 2
|------------------|----------------------|R=1
|------------------|----------------------|
|----5-5-7-4~~~4---|----5-5-7-4~~~--------|
|------------------|--------------6-3-2---|
|-0----------------|-0--------------------|
|----------------4-|--------------------4-|

GTR 1
|-------------------|-------------------------|R=1
|-------------------|-------------------------|
|-------------------|-------------------------|
|----7-7-6----9-9-7-|---10-10-12-9-10-7-6tr7~~|
|-0--------0--------|0------------------------|
|-------------------|-------------------------|

GTR 2
|-------------------|------------------------|R=1
|-------------------|------------------------|
|----5-5-4----7-7-5-|---9--9--10-7-9-5-4tr5~~|
|-------------------|------------------------|
|-0--------0--------|0-----------------------|
|-------------------|------------------------|

GTR 1 riff 4                           riff 5
|---------------------------------|R=1|---------------------------------|R=1
|---------------------------------|   |---------------------------------|
|-222222225p2222224p2222227p222222|   |-000000007p0000005p0000004p000000|
|---------------------------------|   |---------------------------------|
|---------------------------------|   |---------------------------------|
|---------------------------------|   |---------------------------------|

GTR 2 riff 4a                          riff 5a
|---------------------------------|R=1|---------------------------------|R=1
|---------------------------------|   |---------------------------------|
|---------------------------------|   |---------------------------------|
|---------------------------------|   |---------------------------------|
|-77777777777777777777777777777777|   |-55555555555555555555555555555555|
|-55555555555555555555555555555555|   |-33333333333333333333333333333333|

GTR 1 riff6
|--------------------------------|--------------------------------|
|--------------------------------|--------------------------------|
|-------------------------5555444|------------------------55554444|
|-333333337p3333335p333333-------|333333337p3333335p333333--------|
|--------------------------------|--------------------------------|
|--------------------------------|--------------------------------|

GTR 2 riff 6a
|--------------------------------|--------------------------------|
|--------------------------------|--------------------------------|
|--------------------------------|--------------------------------|
|--------------------------------|--------------------------------|
|-3333333333333333333333333333333|33333333333333333333333333333333|
|-1111111111111111111111111111111|11111111111111111111111111111111|

GTR 1 riff 7
|---------------------------------|------------------------|
|---------------------------------|------------------------|
|---------------------------------|5p4---5p4---5p4---5p4-1-|
|-222222225p2222223p2222227p222222|----2-----2-----2-------|
|---------------------------------|------------------------|
|---------------------------------|------------------------|

GTR 2 riff 7a
|---------------------------------|------------------------|
|---------------------------------|------------------------|
|---------------------------------|------------------------|
|---------------------------------|------------------------|
|222222222222222222222222222222222|222-2-222-2-222-2-222-2-|
|000000000000000000000000000000000|000-0-000-0-000-0-000-0-|

GTR 1 repeat
riffs 4,5,6 and 7

GTR 2 repeat
riffs 4a,5a,6a, and 7a

GTR 1

|-555555558p5555557p55555510p555555|444444445p4444447p4444448p444444|R=1
|----------------------------------|--------------------------------|
|----------------------------------|--------------------------------|
|----------------------------------|--------------------------------|
|----------------------------------|--------------------------------|
|----------------------------------|--------------------------------|

GTR 2
|----------------------------------|--------------------------------|R=1
|----------------------------------|--------------------------------|
|----------------------------------|--------------------------------|
|----------------------------------|--------------------------------|
|7777777777777777777777777777777777|66666666666666666666666666666666|
|5555555555555555555555555555555555|44444444444444444444444444444444|

GTR 1&2 riff 8
|----------------------------------------|----------------------------------|
|----------------------------------------|----------------------------------|
|----------------------------------------|----------------------------------|
|9999999999999999888888888888888899999999|1212121212121112118888888888888888|
|7777777777777777666666666666666677777777|1010101010109-109-6666666666666666|
|----------------------------------------|----------------------------------|
 E               D#              E        G           F# GF#D#
repeat riff 8


GTR 1&2 riff 9
|----------------------------|---------------------------|R=1
|----------------------------|---------------------------|
|----------------------------|---------------------------|
|----9--10-7-9-----9--10-7-9-|---------------------------|
|7-7-----------7-7-----------|----7--10-7-9-----6--9-7-6-|
|----------------------------|8-8-----------7-7----------|
 pm-|          pm-|           pm-|          pm-|

GTR 1 riff 10
|--------------------------------|-----------------------------|R=1
|--------------------------------|-----------------------------|
|--------------------------------|-----------------------------|
|--------------------------------|-----------------------------|
|----10--12-9-10-----10--12-9-10-|----10--12-9-10-----7--9-7-6-|
|0-0-------------0-0-------------|8-8-------------7-7----------|
 pm-|            pm-|             pm-|            pm-|

GTR 2 riff 10a
|----------------------------|---------------------------|R=1
|----------------------------|---------------------------|
|----------------------------|---------------------------|
|----9--10-7-9-----9--10-7-9-|----9--10-7-9-----5--7-5-4-|
|----------------------------|---------------------------|
|0-0-----------0-0-----------|8-8-----------7-7----------|
 pm-|          pm-|           pm-|          pm-|

GTR 1 
|----------------------|-------------------|------------------------|
|----------------------|-------------------|------------------------|
|----------------------|-------------------|------------------------|
|----5p4h5----5p4h5----|-5p4h5h7p5p4h5p4---|----4p2h4-----4p2h4-----|
|3-3-------3-3------3-3|----------------h7-|2-2-------2-2-------2-2-|
|----------------------|-------------------|------------------------|

|------------------|R=1
|------------------|
|------------------|
|4p2h4h5p4p2h4p2---|
|---------------h5-|
|------------------|

GTR 2 
|----------------------|-------------------|------------------------|
|----------------------|-------------------|------------------------|
|----4p2h2----4p2h4----|-4p2h4h5p4p2h4p2---|----2p0h2-----2p0h2-----|
|----------------------|----------------h5-|------------------------|
|3-3-------3-3------3-3|-------------------|2-2-------2-2-------2-2-|
|----------------------|-------------------|------------------------|

|------------------|R=1
|------------------|
|2p0h2h4p2p0h2p0---|
|---------------h4-|
|------------------|
|------------------|

GTR 1
|------------------------|------------------------|R=1
|------------------------|------------------------|
|------------------------|------------------------|
|----5/4\7/5-----5/4\7/5-|----5/4\7/5-----5/4\7/5-|
|3-3---------3-3---------|2-2---------2-2---------|
|------------------------|------------------------|

GTR 2
|------------------------|------------------------|R=1
|------------------------|------------------------|
|----4/2\5/4-----4/2\5/4-|----4/2\5/4-----4/2\5/4-|
|------------------------|------------------------|
|3-3---------3-3---------|2-2---------2-2---------|
|------------------------|------------------------|

RIFF 9
RIFF 10
RIFF 2
RIFF 3
RIFF 1

END.

 1998
Tap to rate this tab
 
# A B C D E F G H I J K L M N O P Q R S T U V W X Y Z