Song name
# A B C D E F G H I J K L M N O P Q R S T U V W X Y Z

Misc Unsigned Bands - Ninth Kingdom - Demon Born tab

Demon Born from the album "The Dawning, demo 01"
Visit us, hear music ect. 
www.ninthkingdom.org
or www.myspace.com/ninthkingdom

Down tune 1 1/2 steps

6-C#     3-E
5-F#     2-G#  
4-B      1-C#

R=Repeat
/=slide
\=slide
pm= palm mute

 copyright 1998

GTR 1
|------------------------------------| R=3X 
|------------------------------------|       
|------------------------------------|
|-----10~------12~------9~------7~---| 
|-0--------0--------0-------0--------|
|------------------------------------|

|--------------------------------------|
|--------------------------------------|
|--------------------------------------|
|-----7~-------7~-------7~------6---6~-|
|-0--------0--------0--------0---------|
|--------------------------------------|


|-----------------------------------||
|-----------------------------------||
|-----------------------------------||
|-/3--2h3p2-------------------------||
|------------5~--3~--2h3p2----------||
|---------------------------5~--4~--||

GTR 2
|----------------------------------|R=3X
|----------------------------------|
|-----9~------9~------9~------9~---|
|----------------------------------|
|-0--------0-------0--------0------|
|----------------------------------|

|------------------------------------|
|------------------------------------|
|-----5~------5~------4~------4---4~-|
|------------------------------------|
|-0--------0--------0-------0--------|
|------------------------------------|

|-----------------------------------||
|-----------------------------------||
|-/2--1h2p1-------------------------||
|------------3~--2~--0h2p0----------||
|---------------------------3~--2~--||
|-----------------------------------||

GTR 1&2 riff1
|---------------------------------|---------------------------------|
|---------------------------------|---------------------------------|
|---------------------------------|---------------------------------|
|-------2---3-2-0-2-------3---0-2-|-------2---3-2-0-2-------3---0-2-|
|-0-000---0---------0-000---0-----|-0-000---0---------0-000---0-----|
|---------------------------------|---------------------------------|
  pm---|  pm        pm---|  pm      pm---|  pm        pm---|  pm

|---------------------------------|-----------------------------------|R
|---------------------------------|-----------------------------------|
|---------------------------------|-----------------------------------|
|---------------------------------|-----------------------------------|
|-------3---5-3-2-3-------5---2-3-|-------2---3-2-0-2-------3---0-2---|
|-1-111---1---------1-111---1-----|-0-000---0---------0-000---0-------|
  pm---|  pm        pm---|  pm      pm---|  pm        pm---|  pm

GTR 1
|-------------------------------|-----------------------------|
|-------------------------------|-----------------------------|
|-------------------------------|------777777-----------------|
|-------777777999999101010101010|------------------1010991010-|
|-000000------------------------|888888------777777-----------|
|-------------------------------|-----------------------------|

|-------------------------------|----------------------||R
|-------------------------------|----------------------||
|-------------------------------|------777777----------||
|-------777777999999101010101010|------------101010999-||
|-000000------------------------|888888----------------||
|-------------------------------|----------------------||

GTR 2
|-------------------------|-------------------------------|
|-------------------------|-------------------------------|
|-------555555777777999999|------101010101010------997799-|
|-------------------------|777777------------666666-------|
|-000000------------------|-------------------------------|
|-------------------------|-------------------------------|

|-------------------------|-------------------------||R
|-------------------------|-------------------------||
|-------555555777777999999|------101010101010999777-||
|-------------------------|777777-------------------||
|-000000------------------|-------------------------||
|-------------------------|-------------------------||

GTR 1
|-----------------------|---------------------------|
|-----------------------|---------------------------|
|-----------------------|-------7-------------------|
|-------7-----9-----10-9|---------10-9-------10-9-7-|
|-0-0-0---0-0---0-0-----|-8-888--------7-777--------|
|-----------------------|---------------------------|
  pm--|   pm-   pm-       pm--|        pm--|

|----------------------|---------------------------------||R
|----------------------|---------------------------------||
|-------------------9-7|-----------12-10-9---------------||
|-------7-----9--------|-10-101010---------9-999-12-10-9-||
|-0-0-0---0-0---0-0----|---------------------------------||
|----------------------|---------------------------------||
  pm--|   pm-   pm-     pm------|          pm---|

GTR 2
|-----------------------|--------------------------|
|-----------------------|--------------------------|
|-----------------------|--------------------------|
|-------7-----9-----10-9|-------10-9-7-------9-7-5-|
|-0-0-0---0-0---0-0-----|-8-888--------7-777-------|
|-----------------------|--------------------------|
  pm--|   pm-   pm-       pm--|        pm--|

|-----------------------|---------------------------------||R
|-----------------------|---------------------------------||
|-----------------------|--------------------------10-9-7-||
|-------7-----9-----10-9|-10-101010-14-12-10-9-999--------||
|-0-0-0---0-0---0-0-----|---------------------------------||
|-----------------------|---------------------------------||
  pm--|   pm-   pm-       pm------|          pm---|

GTR 1&2
|----------------------------|------------------------------||R=4X
|----------------------------|------------------------------||
|----------------------------|------------------------------||
|----------------------------|-5-5555-7-777-4-444-4-444-4\5-||
|-0-0000-8-0000-7-0000-5-0000|-3-3333-5-555-2-222-2-222-2\3-||
|----------------------------|------------------------------||
    pm--|  pm--|  pm--|  pm--|  pm--|  pm-|  pm-|  pm-|      

RIFF 2 2X
RIFF 3 2X
RIFF 1 2X

RIFF4 GTR 1&2 
|-------------------------------|-----------------------------------|
|-------------------------------|-----------------------------------|
|-------------------------------|-----------------------------------|
|-------------------------------|101010109h10p9p77777777107777777710|
|-888888881288888888128888888812|-----------------------------------|
|-------------------------------|-----------------------------------|
GTR1
|---------------------|
|---------------------|
|---------------------|
|7777777710/1412h14p12|
|---------------------|
|---------------------|
GTR2
|-------------------|
|-------------------|
|-------------------|
|7777777710/109h10p9|
|-------------------|
|-------------------|

 GTR 1&2 
|-------------------------------|-----------------------------------|
|-------------------------------|-----------------------------------|
|-------------------------------|-----------------------------------|
|-------------------------------|101010109h10p9p77777777107777777710|
|-888888881288888888128888888812|-----------------------------------|
|-------------------------------|-----------------------------------|
GTR1
|---------------------|-------------------||Repeat again from riff 4 
|---------------------|-------------------|| 
|---------------------|-------------------||
|7777777710/1412h14p12|77777710/1412h14p12||
|---------------------|-------------------||
|---------------------|-------------------||
GTR2
|-------------------|-------------------||Repeat again from riff 4 
|-------------------|-------------------||
|-------------------|-------------------||
|7777777710/109h10p9|7777777710/109h10p9||
|-------------------|-------------------||
|-------------------|-------------------||

GTR 1 slight palm mute throughout 
|--------------------|--------------------|--------------------
|--------------------|--------------------|--------------------
|--------------------|--------------------|--------------------
|-7-10-9-10-7-10-9-10|-7-10-9-10-7-10-9-10|---10-9-10---10-9-10
|--------------------|--------------------|-8---------8--------
|--------------------|--------------------|--------------------

|---------------------|R=4X  |-----------|| END.
|---------------------|      |-----------||
|---------------------|      |-----------||
|---10-9-10-6-10-9-10-|      |-7~~~~~~~~-||
|-7-------------------|      |-----------||
|---------------------|      |-----------||

GTR 2 slight palm mute throughtout
|----------------|----------------|-----------------
|----------------|----------------|-----------------
|-5-9-7-9-5-9-7-9|-5-9-7-9-5-9-7-9|---9-7-9---9-7-9-
|----------------|----------------|-7-------7-------
|----------------|----------------|-----------------
|----------------|----------------|-----------------

|----------------|R=4X      |-----------|| END.
|----------------|          |-----------||
|--9-7-9-4-9-7-9-|          |-5~~~~~~~~-||
|6---------------|          |-----------||
|----------------|          |-----------||
|----------------|          |-----------||

 1998
Tap to rate this tab
 
# A B C D E F G H I J K L M N O P Q R S T U V W X Y Z