Song name
# A B C D E F G H I J K L M N O P Q R S T U V W X Y Z

Misc Unsigned Bands - Deadly Premonition - Whistle Song tab

This is the updated version.

The style of playing this is to finger pick it. Use your thumb on all the root notes of 
each chord, and your other fingers on the other notes. Listen to the song to hear the 
transitions between chords, its pretty much the root note then the open A string.

e|-----------------------------------------------------------|
B|--3-3---5-5---5-5---3-3---3-3---5-5---5-5---3-5-7-3--------|
G|--4-4---4-4---4-4---5-5---4-4---4-4---4-4------------------|
D|--4-4---5-5---5-5---4-4---4-4---5-5---5-5---0-2-4-0--------|
A|--------4-4---3-3---5-5---------4-4---3-3------------------|
E|--3-3---------------------3-3------------------------------|


e|-----------------------------------------------------------|
B|--3-3---5-5---5-5---3-3---3-3---5-5---5-5---3-3------------|
G|--4-4---4-4---4-4---5-5---4-4---4-4---4-4---4-4------------|
D|--4-4---5-5---5-5---4-4---4-4---5-5---5-5---4-4------------|
A|--------4-4---3-3---5-5---------4-4---3-3------------------|
E|--3-3---------------------3-3---------------3-3------------|

e|-----------------------------------------------------------|
B|--3-3---5-5---5-5---3-3---3-3---5-5---5-5------------------|
G|--4-4---4-4---4-4---5-5---4-4---4-4---4-4---4-5-7-4--------|
D|--4-4---5-5---5-5---4-4---4-4---5-5---5-5---4-5-7-4--------|
A|--------4-4---3-3---5-5---------4-4---3-3---5-7-9-5--------|
E|--3-3---------------------3-3---------------3-5-7-3--------|

e|-----------------------------------------------------------|
B|--5-5---4-4---3-3---5-5---1-1---5-5---3-3---6-6------------|
G|--4-4---3-3---2-2---7-7---0-0---5-5---4-4---5-5------------|
D|--5-5---5-5---4-4---6-6---2-2---4-4---4-4---7-6------------|
A|--3-3---3-3---2-2---7-7---0-0---5-5---------5-5------------|
E|--------------------------------------3-3------------------|


e|---------------------------------------|
B|--5-5---4-4---3-3---5-5---1-1---5-5----|
G|--4-4---3-3---2-2---7-7---0-0---5-5----|  Then it starts at the top.
D|--5-5---5-5---4-4---6-6---2-2---4-4----|
A|--3-3---3-3---2-2---7-7---0-0---5-5----|
E|---------------------------------------|
Tap to rate this tab
 
# A B C D E F G H I J K L M N O P Q R S T U V W X Y Z